  0
SECTION
  2
HEADER
  9
$ACADVER
  1
AC1014
  9
$ACADMAINTVER
 70
     9
  9
$DWGCODEPAGE
  3
ANSI_1252
  9
$INSBASE
 10
0.0
 20
0.0
 30
0.0
  9
$EXTMIN
 10
1.000000000000000E+20
 20
1.000000000000000E+20
 30
1.000000000000000E+20
  9
$EXTMAX
 10
-1.000000000000000E+20
 20
-1.000000000000000E+20
 30
-1.000000000000000E+20
  9
$LIMMIN
 10
0.0
 20
0.0
  9
$LIMMAX
 10
12.0
 20
9.0
  9
$ORTHOMODE
 70
     0
  9
$REGENMODE
 70
     1
  9
$FILLMODE
 70
     1
  9
$QTEXTMODE
 70
     0
  9
$MIRRTEXT
 70
     1
  9
$DRAGMODE
 70
     2
  9
$LTSCALE
 40
1.0
  9
$OSMODE
 70
    37
  9
$ATTMODE
 70
     1
  9
$TEXTSIZE
 40
0.2
  9
$TRACEWID
 40
0.05
  9
$TEXTSTYLE
  7
STANDARD
  9
$CLAYER
  8
0
  9
$CELTYPE
  6
BYLAYER
  9
$CECOLOR
 62
   256
  9
$CELTSCALE
 40
1.0
  9
$DELOBJ
 70
     1
  9
$DISPSILH
 70
     0
  9
$DIMSCALE
 40
1.0
  9
$DIMASZ
 40
0.18
  9
$DIMEXO
 40
0.0625
  9
$DIMDLI
 40
0.38
  9
$DIMRND
 40
0.0
  9
$DIMDLE
 40
0.0
  9
$DIMEXE
 40
0.18
  9
$DIMTP
 40
0.0
  9
$DIMTM
 40
0.0
  9
$DIMTXT
 40
0.18
  9
$DIMCEN
 40
0.09
  9
$DIMTSZ
 40
0.0
  9
$DIMTOL
 70
     0
  9
$DIMLIM
 70
     0
  9
$DIMTIH
 70
     1
  9
$DIMTOH
 70
     1
  9
$DIMSE1
 70
     0
  9
$DIMSE2
 70
     0
  9
$DIMTAD
 70
     0
  9
$DIMZIN
 70
     0
  9
$DIMBLK
  1

  9
$DIMASO
 70
     1
  9
$DIMSHO
 70
     1
  9
$DIMPOST
  1

  9
$DIMAPOST
  1

  9
$DIMALT
 70
     0
  9
$DIMALTD
 70
     2
  9
$DIMALTF
 40
25.4
  9
$DIMLFAC
 40
1.0
  9
$DIMTOFL
 70
     0
  9
$DIMTVP
 40
0.0
  9
$DIMTIX
 70
     0
  9
$DIMSOXD
 70
     0
  9
$DIMSAH
 70
     0
  9
$DIMBLK1
  1

  9
$DIMBLK2
  1

  9
$DIMSTYLE
  2
STANDARD
  9
$DIMCLRD
 70
     0
  9
$DIMCLRE
 70
     0
  9
$DIMCLRT
 70
     0
  9
$DIMTFAC
 40
1.0
  9
$DIMGAP
 40
0.09
  9
$DIMJUST
 70
     0
  9
$DIMSD1
 70
     0
  9
$DIMSD2
 70
     0
  9
$DIMTOLJ
 70
     1
  9
$DIMTZIN
 70
     0
  9
$DIMALTZ
 70
     0
  9
$DIMALTTZ
 70
     0
  9
$DIMFIT
 70
     3
  9
$DIMUPT
 70
     0
  9
$DIMUNIT
 70
     2
  9
$DIMDEC
 70
     4
  9
$DIMTDEC
 70
     4
  9
$DIMALTU
 70
     2
  9
$DIMALTTD
 70
     2
  9
$DIMTXSTY
  7
STANDARD
  9
$DIMAUNIT
 70
     0
  9
$LUNITS
 70
     2
  9
$LUPREC
 70
     4
  9
$SKETCHINC
 40
0.1
  9
$FILLETRAD
 40
0.5
  9
$AUNITS
 70
     0
  9
$AUPREC
 70
     0
  9
$MENU
  1
.
  9
$ELEVATION
 40
0.0
  9
$PELEVATION
 40
0.0
  9
$THICKNESS
 40
0.0
  9
$LIMCHECK
 70
     0
  9
$CHAMFERA
 40
0.5
  9
$CHAMFERB
 40
0.5
  9
$CHAMFERC
 40
1.0
  9
$CHAMFERD
 40
0.0
  9
$SKPOLY
 70
     0
  9
$TDCREATE
 40
2458050.668300995
  9
$TDUPDATE
 40
2458050.668301539
  9
$TDINDWG
 40
0.0000000116
  9
$TDUSRTIMER
 40
0.0000000116
  9
$USRTIMER
 70
     1
  9
$ANGBASE
 50
0.0
  9
$ANGDIR
 70
     0
  9
$PDMODE
 70
     0
  9
$PDSIZE
 40
0.0
  9
$PLINEWID
 40
0.0
  9
$COORDS
 70
     1
  9
$SPLFRAME
 70
     0
  9
$SPLINETYPE
 70
     6
  9
$SPLINESEGS
 70
     8
  9
$ATTDIA
 70
     0
  9
$ATTREQ
 70
     1
  9
$HANDLING
 70
     1
  9
$HANDSEED
  5
6F9
  9
$SURFTAB1
 70
     6
  9
$SURFTAB2
 70
     6
  9
$SURFTYPE
 70
     6
  9
$SURFU
 70
     6
  9
$SURFV
 70
     6
  9
$UCSNAME
  2

  9
$UCSORG
 10
0.0
 20
0.0
 30
0.0
  9
$UCSXDIR
 10
1.0
 20
0.0
 30
0.0
  9
$UCSYDIR
 10
0.0
 20
1.0
 30
0.0
  9
$PUCSNAME
  2

  9
$PUCSORG
 10
0.0
 20
0.0
 30
0.0
  9
$PUCSXDIR
 10
1.0
 20
0.0
 30
0.0
  9
$PUCSYDIR
 10
0.0
 20
1.0
 30
0.0
  9
$USERI1
 70
     0
  9
$USERI2
 70
     0
  9
$USERI3
 70
     0
  9
$USERI4
 70
     0
  9
$USERI5
 70
     0
  9
$USERR1
 40
0.0
  9
$USERR2
 40
0.0
  9
$USERR3
 40
0.0
  9
$USERR4
 40
0.0
  9
$USERR5
 40
0.0
  9
$WORLDVIEW
 70
     1
  9
$SHADEDGE
 70
     3
  9
$SHADEDIF
 70
    70
  9
$TILEMODE
 70
     1
  9
$MAXACTVP
 70
    64
  9
$PINSBASE
 10
0.0
 20
0.0
 30
0.0
  9
$PLIMCHECK
 70
     0
  9
$PEXTMIN
 10
1.000000000000000E+20
 20
1.000000000000000E+20
 30
1.000000000000000E+20
  9
$PEXTMAX
 10
-1.000000000000000E+20
 20
-1.000000000000000E+20
 30
-1.000000000000000E+20
  9
$PLIMMIN
 10
0.0
 20
0.0
  9
$PLIMMAX
 10
12.0
 20
9.0
  9
$UNITMODE
 70
     0
  9
$VISRETAIN
 70
     1
  9
$PLINEGEN
 70
     0
  9
$PSLTSCALE
 70
     1
  9
$TREEDEPTH
 70
  3020
  9
$PICKSTYLE
 70
     1
  9
$CMLSTYLE
  2
STANDARD
  9
$CMLJUST
 70
     0
  9
$CMLSCALE
 40
1.0
  9
$PROXYGRAPHICS
 70
     1
  9
$MEASUREMENT
 70
     0
  0
ENDSEC
  0
SECTION
  2
CLASSES
  0
CLASS
  1
ACDBDICTIONARYWDFLT
  2
AcDbDictionaryWithDefault
  3
ObjectDBX Classes
 90
        0
280
     0
281
     0
  0
CLASS
  1
VISUALSTYLE
  2
AcDbVisualStyle
  3
ObjectDBX Classes
 90
     4095
280
     0
281
     0
  0
CLASS
  1
MATERIAL
  2
AcDbMaterial
  3
ObjectDBX Classes
 90
     1153
280
     0
281
     0
  0
CLASS
  1
SUN
  2
AcDbSun
  3
SCENEOE
 90
     1024
280
     0
281
     0
  0
CLASS
  1
DICTIONARYVAR
  2
AcDbDictionaryVar
  3
ObjectDBX Classes
 90
        0
280
     0
281
     0
  0
CLASS
  1
XRECORD
  2
AcDbXrecord
  3
AutoCAD 2000
 90
        0
280
     0
281
     0
  0
CLASS
  1
LWPOLYLINE
  2
AcDbPolyline
  3
AutoCAD 2000
 90
        0
280
     0
281
     1
  0
CLASS
  1
HATCH
  2
AcDbHatch
  3
AutoCAD 2000
 90
        0
280
     0
281
     1
  0
CLASS
  1
ACDBPLACEHOLDER
  2
AcDbPlaceHolder
  3
ObjectDBX Classes
 90
        0
280
     0
281
     0
  0
CLASS
  1
LAYOUT
  2
AcDbLayout
  3
ObjectDBX Classes
 90
        0
280
     0
281
     0
  0
ENDSEC
  0
SECTION
  2
TABLES
  0
TABLE
  2
VPORT
  5
8
330
0
100
AcDbSymbolTable
 70
     1
  0
VPORT
  5
29
330
8
100
AcDbSymbolTableRecord
100
AcDbViewportTableRecord
  2
*ACTIVE
 70
     0
 10
0.0
 20
0.0
 11
1.0
 21
1.0
 12
0.0
 22
0.0
 13
0.0
 23
0.0
 14
0.5
 24
0.5
 15
0.5
 25
0.5
 16
0.0
 26
0.0
 36
1.0
 17
1050.007777515277
 27
-1485.000416295416
 37
0.0
 40
2970.000832590831
 41
0.7070757462376333
 42
50.0
 43
0.0
 44
0.0
 50
0.0
 51
0.0
 71
     0
 72
   100
 73
     1
 74
     3
 75
     0
 76
     0
 77
     0
 78
     0
  0
ENDTAB
  0
TABLE
  2
LTYPE
  5
5
330
0
100
AcDbSymbolTable
 70
    13
  0
LTYPE
  5
14
330
5
100
AcDbSymbolTableRecord
100
AcDbLinetypeTableRecord
  2
BYBLOCK
 70
     0
  3

 72
    65
 73
     0
 40
0.0
  0
LTYPE
  5
15
330
5
100
AcDbSymbolTableRecord
100
AcDbLinetypeTableRecord
  2
BYLAYER
 70
     0
  3

 72
    65
 73
     0
 40
0.0
  0
LTYPE
  5
16
330
5
100
AcDbSymbolTableRecord
100
AcDbLinetypeTableRecord
  2
CONTINUOUS
 70
     0
  3
Solid line
 72
    65
 73
     0
 40
0.0
  0
LTYPE
  5
197
330
5
100
AcDbSymbolTableRecord
100
AcDbLinetypeTableRecord
  2
AI-LINETYPE-1
 70
     0
  3
Adobe Illustrator Linetype No. 1
 72
    65
 73
     4
 40
95.2499999761875
 49
52.9166666534375
 74
     0
 49
-17.63888888447917
 74
     0
 49
7.055555553791667
 74
     0
 49
-17.63888888447917
 74
     0
  0
LTYPE
  5
1A0
330
5
100
AcDbSymbolTableRecord
100
AcDbLinetypeTableRecord
  2
AI-LINETYPE-2
 70
     0
  3
Adobe Illustrator Linetype No. 2
 72
    65
 73
     4
 40
95.2499999761875
 49
52.9166666534375
 74
     0
 49
-17.63888888447917
 74
     0
 49
7.055555553791667
 74
     0
 49
-17.63888888447917
 74
     0
  0
LTYPE
  5
4BD
330
5
100
AcDbSymbolTableRecord
100
AcDbLinetypeTableRecord
  2
AI-LINETYPE-3
 70
     0
  3
Adobe Illustrator Linetype No. 3
 72
    65
 73
     4
 40
95.2499999761875
 49
52.9166666534375
 74
     0
 49
-17.63888888447917
 74
     0
 49
7.055555553791667
 74
     0
 49
-17.63888888447917
 74
     0
  0
LTYPE
  5
4C6
330
5
100
AcDbSymbolTableRecord
100
AcDbLinetypeTableRecord
  2
AI-LINETYPE-4
 70
     0
  3
Adobe Illustrator Linetype No. 4
 72
    65
 73
     4
 40
95.2499999761875
 49
52.9166666534375
 74
     0
 49
-17.63888888447917
 74
     0
 49
7.055555553791667
 74
     0
 49
-17.63888888447917
 74
     0
  0
LTYPE
  5
4CB
330
5
100
AcDbSymbolTableRecord
100
AcDbLinetypeTableRecord
  2
AI-LINETYPE-5
 70
     0
  3
Adobe Illustrator Linetype No. 5
 72
    65
 73
     4
 40
95.2499999761875
 49
52.9166666534375
 74
     0
 49
-17.63888888447917
 74
     0
 49
7.055555553791667
 74
     0
 49
-17.63888888447917
 74
     0
  0
LTYPE
  5
4D2
330
5
100
AcDbSymbolTableRecord
100
AcDbLinetypeTableRecord
  2
AI-LINETYPE-6
 70
     0
  3
Adobe Illustrator Linetype No. 6
 72
    65
 73
     4
 40
95.2499999761875
 49
52.9166666534375
 74
     0
 49
-17.63888888447917
 74
     0
 49
7.055555553791667
 74
     0
 49
-17.63888888447917
 74
     0
  0
LTYPE
  5
4DA
330
5
100
AcDbSymbolTableRecord
100
AcDbLinetypeTableRecord
  2
AI-LINETYPE-7
 70
     0
  3
Adobe Illustrator Linetype No. 7
 72
    65
 73
     4
 40
95.2499999761875
 49
52.9166666534375
 74
     0
 49
-17.63888888447917
 74
     0
 49
7.055555553791667
 74
     0
 49
-17.63888888447917
 74
     0
  0
LTYPE
  5
4E3
330
5
100
AcDbSymbolTableRecord
100
AcDbLinetypeTableRecord
  2
AI-LINETYPE-8
 70
     0
  3
Adobe Illustrator Linetype No. 8
 72
    65
 73
     4
 40
95.2499999761875
 49
52.9166666534375
 74
     0
 49
-17.63888888447917
 74
     0
 49
7.055555553791667
 74
     0
 49
-17.63888888447917
 74
     0
  0
LTYPE
  5
4EC
330
5
100
AcDbSymbolTableRecord
100
AcDbLinetypeTableRecord
  2
AI-LINETYPE-9
 70
     0
  3
Adobe Illustrator Linetype No. 9
 72
    65
 73
     4
 40
95.2499999761875
 49
52.9166666534375
 74
     0
 49
-17.63888888447917
 74
     0
 49
7.055555553791667
 74
     0
 49
-17.63888888447917
 74
     0
  0
LTYPE
  5
4F5
330
5
100
AcDbSymbolTableRecord
100
AcDbLinetypeTableRecord
  2
AI-LINETYPE-10
 70
     0
  3
Adobe Illustrator Linetype No. 10
 72
    65
 73
     4
 40
95.2499999761875
 49
52.9166666534375
 74
     0
 49
-17.63888888447917
 74
     0
 49
7.055555553791667
 74
     0
 49
-17.63888888447917
 74
     0
  0
LTYPE
  5
6C4
330
5
100
AcDbSymbolTableRecord
100
AcDbLinetypeTableRecord
  2
AI-LINETYPE-11
 70
     0
  3
Adobe Illustrator Linetype No. 11
 72
    65
 73
     4
 40
95.2499999761875
 49
52.9166666534375
 74
     0
 49
-17.63888888447917
 74
     0
 49
7.055555553791667
 74
     0
 49
-17.63888888447917
 74
     0
  0
LTYPE
  5
6C9
330
5
100
AcDbSymbolTableRecord
100
AcDbLinetypeTableRecord
  2
AI-LINETYPE-12
 70
     0
  3
Adobe Illustrator Linetype No. 12
 72
    65
 73
     4
 40
95.2499999761875
 49
52.9166666534375
 74
     0
 49
-17.63888888447917
 74
     0
 49
7.055555553791667
 74
     0
 49
-17.63888888447917
 74
     0
  0
ENDTAB
  0
TABLE
  2
LAYER
  5
2
330
0
100
AcDbSymbolTable
 70
    10
  0
LAYER
  5
10
330
2
100
AcDbSymbolTableRecord
100
AcDbLayerTableRecord
  2
0
 70
     0
 62
     7
  6
CONTINUOUS
  0
LAYER
  5
40
330
2
100
AcDbSymbolTableRecord
100
AcDbLayerTableRecord
  2
GUIDE
 70
     5
 62
     7
  6
CONTINUOUS
  0
LAYER
  5
41
330
2
100
AcDbSymbolTableRecord
100
AcDbLayerTableRecord
  2
CARTIGLIO
 70
     0
 62
     7
  6
CONTINUOUS
  0
LAYER
  5
136
330
2
100
AcDbSymbolTableRecord
100
AcDbLayerTableRecord
  2
BOX__JPEG_
 70
     5
 62
     7
  6
CONTINUOUS
  0
LAYER
  5
137
330
2
100
AcDbSymbolTableRecord
100
AcDbLayerTableRecord
  2
PUMP_-_VISTA_LATO
 70
     0
 62
     7
  6
CONTINUOUS
  0
LAYER
  5
49A
330
2
100
AcDbSymbolTableRecord
100
AcDbLayerTableRecord
  2
PUMP_-_FRONTE
 70
     0
 62
     7
  6
CONTINUOUS
  0
LAYER
  5
52E
330
2
100
AcDbSymbolTableRecord
100
AcDbLayerTableRecord
  2
PUMP_-_ALTO
 70
     0
 62
     7
  6
CONTINUOUS
  0
LAYER
  5
6CB
330
2
100
AcDbSymbolTableRecord
100
AcDbLayerTableRecord
  2
DAC_32-50_G50H-G50V_KAF_3_
 70
     5
 62
     7
  6
CONTINUOUS
  0
LAYER
  5
6CC
330
2
100
AcDbSymbolTableRecord
100
AcDbLayerTableRecord
  2
DAC_32-50_G50V-G65V_3_4__E
 70
     5
 62
     7
  6
CONTINUOUS
  0
LAYER
  5
6CD
330
2
100
AcDbSymbolTableRecord
100
AcDbLayerTableRecord
  2
DAC_32-50_G50V-G65V_3_4__0
 70
     5
 62
     7
  6
CONTINUOUS
  0
ENDTAB
  0
TABLE
  2
STYLE
  5
3
330
0
100
AcDbSymbolTable
 70
     1
  0
STYLE
  5
11
330
3
100
AcDbSymbolTableRecord
100
AcDbTextStyleTableRecord
  2
STANDARD
 70
     0
 40
0.0
 41
1.0
 50
0.0
 71
     0
 42
0.2
  3
txt
  4

  0
ENDTAB
  0
TABLE
  2
VIEW
  5
6
330
0
100
AcDbSymbolTable
 70
     0
  0
ENDTAB
  0
TABLE
  2
UCS
  5
7
330
0
100
AcDbSymbolTable
 70
     0
  0
ENDTAB
  0
TABLE
  2
APPID
  5
9
330
0
100
AcDbSymbolTable
 70
     1
  0
APPID
  5
12
330
9
100
AcDbSymbolTableRecord
100
AcDbRegAppTableRecord
  2
ACAD
 70
     0
  0
ENDTAB
  0
TABLE
  2
DIMSTYLE
  5
A
330
0
100
AcDbSymbolTable
 70
     1
  0
DIMSTYLE
105
27
330
A
100
AcDbSymbolTableRecord
100
AcDbDimStyleTableRecord
  2
STANDARD
 70
     0
  3

  4

  5

  6

  7

 40
1.0
 41
0.18
 42
0.0625
 43
0.38
 44
0.18
 45
0.0
 46
0.0
 47
0.0
 48
0.0
140
0.18
141
0.09
142
0.0
143
25.4
144
1.0
145
0.0
146
1.0
147
0.09
 71
     0
 72
     0
 73
     1
 74
     1
 75
     0
 76
     0
 77
     0
 78
     0
170
     0
171
     2
172
     0
173
     0
174
     0
175
     0
176
     0
177
     0
178
     0
270
     2
271
     4
272
     4
273
     2
274
     2
340
11
275
     0
280
     0
281
     0
282
     0
283
     1
284
     0
285
     0
286
     0
287
     3
288
     0
  0
ENDTAB
  0
TABLE
  2
BLOCK_RECORD
  5
1
330
0
100
AcDbSymbolTable
 70
   158
  0
BLOCK_RECORD
  5
1F
330
1
100
AcDbSymbolTableRecord
100
AcDbBlockTableRecord
  2
*MODEL_SPACE
  0
BLOCK_RECORD
  5
1B
330
1
100
AcDbSymbolTableRecord
100
AcDbBlockTableRecord
  2
*PAPER_SPACE
  0
BLOCK_RECORD
  5
42
330
1
100
AcDbSymbolTableRecord
100
AcDbBlockTableRecord
  2
BLOCK_2
  0
BLOCK_RECORD
  5
54
330
1
100
AcDbSymbolTableRecord
100
AcDbBlockTableRecord
  2
BLOCK_3
  0
BLOCK_RECORD
  5
6E
330
1
100
AcDbSymbolTableRecord
100
AcDbBlockTableRecord
  2
BLOCK_4
  0
BLOCK_RECORD
  5
A5
330
1
100
AcDbSymbolTableRecord
100
AcDbBlockTableRecord
  2
BLOCK_5
  0
BLOCK_RECORD
  5
113
330
1
100
AcDbSymbolTableRecord
100
AcDbBlockTableRecord
  2
BLOCK_6
  0
BLOCK_RECORD
  5
140
330
1
100
AcDbSymbolTableRecord
100
AcDbBlockTableRecord
  2
BLOCK_7
  0
BLOCK_RECORD
  5
148
330
1
100
AcDbSymbolTableRecord
100
AcDbBlockTableRecord
  2
BLOCK_8
  0
BLOCK_RECORD
  5
153
330
1
100
AcDbSymbolTableRecord
100
AcDbBlockTableRecord
  2
BLOCK_9
  0
BLOCK_RECORD
  5
15E
330
1
100
AcDbSymbolTableRecord
100
AcDbBlockTableRecord
  2
BLOCK_10
  0
BLOCK_RECORD
  5
168
330
1
100
AcDbSymbolTableRecord
100
AcDbBlockTableRecord
  2
BLOCK_11
  0
BLOCK_RECORD
  5
170
330
1
100
AcDbSymbolTableRecord
100
AcDbBlockTableRecord
  2
BLOCK_12
  0
BLOCK_RECORD
  5
17B
330
1
100
AcDbSymbolTableRecord
100
AcDbBlockTableRecord
  2
BLOCK_13
  0
BLOCK_RECORD
  5
186
330
1
100
AcDbSymbolTableRecord
100
AcDbBlockTableRecord
  2
BLOCK_14
  0
BLOCK_RECORD
  5
18C
330
1
100
AcDbSymbolTableRecord
100
AcDbBlockTableRecord
  2
BLOCK_15
  0
BLOCK_RECORD
  5
190
330
1
100
AcDbSymbolTableRecord
100
AcDbBlockTableRecord
  2
BLOCK_16
  0
BLOCK_RECORD
  5
199
330
1
100
AcDbSymbolTableRecord
100
AcDbBlockTableRecord
  2
BLOCK_17
  0
BLOCK_RECORD
  5
1D6
330
1
100
AcDbSymbolTableRecord
100
AcDbBlockTableRecord
  2
BLOCK_18
  0
BLOCK_RECORD
  5
1DA
330
1
100
AcDbSymbolTableRecord
100
AcDbBlockTableRecord
  2
BLOCK_19
  0
BLOCK_RECORD
  5
24C
330
1
100
AcDbSymbolTableRecord
100
AcDbBlockTableRecord
  2
BLOCK_20
  0
BLOCK_RECORD
  5
257
330
1
100
AcDbSymbolTableRecord
100
AcDbBlockTableRecord
  2
BLOCK_21
  0
BLOCK_RECORD
  5
260
330
1
100
AcDbSymbolTableRecord
100
AcDbBlockTableRecord
  2
BLOCK_22
  0
BLOCK_RECORD
  5
2F9
330
1
100
AcDbSymbolTableRecord
100
AcDbBlockTableRecord
  2
BLOCK_23
  0
BLOCK_RECORD
  5
2FD
330
1
100
AcDbSymbolTableRecord
100
AcDbBlockTableRecord
  2
BLOCK_24
  0
BLOCK_RECORD
  5
301
330
1
100
AcDbSymbolTableRecord
100
AcDbBlockTableRecord
  2
BLOCK_25
  0
BLOCK_RECORD
  5
309
330
1
100
AcDbSymbolTableRecord
100
AcDbBlockTableRecord
  2
BLOCK_26
  0
BLOCK_RECORD
  5
311
330
1
100
AcDbSymbolTableRecord
100
AcDbBlockTableRecord
  2
BLOCK_27
  0
BLOCK_RECORD
  5
316
330
1
100
AcDbSymbolTableRecord
100
AcDbBlockTableRecord
  2
BLOCK_28
  0
BLOCK_RECORD
  5
31E
330
1
100
AcDbSymbolTableRecord
100
AcDbBlockTableRecord
  2
BLOCK_29
  0
BLOCK_RECORD
  5
326
330
1
100
AcDbSymbolTableRecord
100
AcDbBlockTableRecord
  2
BLOCK_30
  0
BLOCK_RECORD
  5
32B
330
1
100
AcDbSymbolTableRecord
100
AcDbBlockTableRecord
  2
BLOCK_31
  0
BLOCK_RECORD
  5
330
330
1
100
AcDbSymbolTableRecord
100
AcDbBlockTableRecord
  2
BLOCK_32
  0
BLOCK_RECORD
  5
338
330
1
100
AcDbSymbolTableRecord
100
AcDbBlockTableRecord
  2
BLOCK_33
  0
BLOCK_RECORD
  5
33D
330
1
100
AcDbSymbolTableRecord
100
AcDbBlockTableRecord
  2
BLOCK_34
  0
BLOCK_RECORD
  5
342
330
1
100
AcDbSymbolTableRecord
100
AcDbBlockTableRecord
  2
BLOCK_35
  0
BLOCK_RECORD
  5
347
330
1
100
AcDbSymbolTableRecord
100
AcDbBlockTableRecord
  2
BLOCK_36
  0
BLOCK_RECORD
  5
34C
330
1
100
AcDbSymbolTableRecord
100
AcDbBlockTableRecord
  2
BLOCK_37
  0
BLOCK_RECORD
  5
351
330
1
100
AcDbSymbolTableRecord
100
AcDbBlockTableRecord
  2
BLOCK_38
  0
BLOCK_RECORD
  5
359
330
1
100
AcDbSymbolTableRecord
100
AcDbBlockTableRecord
  2
BLOCK_39
  0
BLOCK_RECORD
  5
35E
330
1
100
AcDbSymbolTableRecord
100
AcDbBlockTableRecord
  2
BLOCK_40
  0
BLOCK_RECORD
  5
363
330
1
100
AcDbSymbolTableRecord
100
AcDbBlockTableRecord
  2
BLOCK_41
  0
BLOCK_RECORD
  5
36B
330
1
100
AcDbSymbolTableRecord
100
AcDbBlockTableRecord
  2
BLOCK_42
  0
BLOCK_RECORD
  5
370
330
1
100
AcDbSymbolTableRecord
100
AcDbBlockTableRecord
  2
BLOCK_43
  0
BLOCK_RECORD
  5
375
330
1
100
AcDbSymbolTableRecord
100
AcDbBlockTableRecord
  2
BLOCK_44
  0
BLOCK_RECORD
  5
37A
330
1
100
AcDbSymbolTableRecord
100
AcDbBlockTableRecord
  2
BLOCK_45
  0
BLOCK_RECORD
  5
37F
330
1
100
AcDbSymbolTableRecord
100
AcDbBlockTableRecord
  2
BLOCK_46
  0
BLOCK_RECORD
  5
387
330
1
100
AcDbSymbolTableRecord
100
AcDbBlockTableRecord
  2
BLOCK_47
  0
BLOCK_RECORD
  5
38C
330
1
100
AcDbSymbolTableRecord
100
AcDbBlockTableRecord
  2
BLOCK_48
  0
BLOCK_RECORD
  5
394
330
1
100
AcDbSymbolTableRecord
100
AcDbBlockTableRecord
  2
BLOCK_49
  0
BLOCK_RECORD
  5
39C
330
1
100
AcDbSymbolTableRecord
100
AcDbBlockTableRecord
  2
BLOCK_50
  0
BLOCK_RECORD
  5
3A4
330
1
100
AcDbSymbolTableRecord
100
AcDbBlockTableRecord
  2
BLOCK_51
  0
BLOCK_RECORD
  5
3AC
330
1
100
AcDbSymbolTableRecord
100
AcDbBlockTableRecord
  2
BLOCK_52
  0
BLOCK_RECORD
  5
3B1
330
1
100
AcDbSymbolTableRecord
100
AcDbBlockTableRecord
  2
BLOCK_53
  0
BLOCK_RECORD
  5
3B9
330
1
100
AcDbSymbolTableRecord
100
AcDbBlockTableRecord
  2
BLOCK_54
  0
BLOCK_RECORD
  5
3C1
330
1
100
AcDbSymbolTableRecord
100
AcDbBlockTableRecord
  2
BLOCK_55
  0
BLOCK_RECORD
  5
3C9
330
1
100
AcDbSymbolTableRecord
100
AcDbBlockTableRecord
  2
BLOCK_56
  0
BLOCK_RECORD
  5
3D1
330
1
100
AcDbSymbolTableRecord
100
AcDbBlockTableRecord
  2
BLOCK_57
  0
BLOCK_RECORD
  5
3D9
330
1
100
AcDbSymbolTableRecord
100
AcDbBlockTableRecord
  2
BLOCK_58
  0
BLOCK_RECORD
  5
3E1
330
1
100
AcDbSymbolTableRecord
100
AcDbBlockTableRecord
  2
BLOCK_59
  0
BLOCK_RECORD
  5
3E9
330
1
100
AcDbSymbolTableRecord
100
AcDbBlockTableRecord
  2
BLOCK_60
  0
BLOCK_RECORD
  5
3F1
330
1
100
AcDbSymbolTableRecord
100
AcDbBlockTableRecord
  2
BLOCK_61
  0
BLOCK_RECORD
  5
3F9
330
1
100
AcDbSymbolTableRecord
100
AcDbBlockTableRecord
  2
BLOCK_62
  0
BLOCK_RECORD
  5
3FE
330
1
100
AcDbSymbolTableRecord
100
AcDbBlockTableRecord
  2
BLOCK_63
  0
BLOCK_RECORD
  5
403
330
1
100
AcDbSymbolTableRecord
100
AcDbBlockTableRecord
  2
BLOCK_64
  0
BLOCK_RECORD
  5
40B
330
1
100
AcDbSymbolTableRecord
100
AcDbBlockTableRecord
  2
BLOCK_65
  0
BLOCK_RECORD
  5
413
330
1
100
AcDbSymbolTableRecord
100
AcDbBlockTableRecord
  2
BLOCK_66
  0
BLOCK_RECORD
  5
418
330
1
100
AcDbSymbolTableRecord
100
AcDbBlockTableRecord
  2
BLOCK_67
  0
BLOCK_RECORD
  5
420
330
1
100
AcDbSymbolTableRecord
100
AcDbBlockTableRecord
  2
BLOCK_68
  0
BLOCK_RECORD
  5
428
330
1
100
AcDbSymbolTableRecord
100
AcDbBlockTableRecord
  2
BLOCK_69
  0
BLOCK_RECORD
  5
42D
330
1
100
AcDbSymbolTableRecord
100
AcDbBlockTableRecord
  2
BLOCK_70
  0
BLOCK_RECORD
  5
435
330
1
100
AcDbSymbolTableRecord
100
AcDbBlockTableRecord
  2
BLOCK_71
  0
BLOCK_RECORD
  5
43D
330
1
100
AcDbSymbolTableRecord
100
AcDbBlockTableRecord
  2
BLOCK_72
  0
BLOCK_RECORD
  5
442
330
1
100
AcDbSymbolTableRecord
100
AcDbBlockTableRecord
  2
BLOCK_73
  0
BLOCK_RECORD
  5
44A
330
1
100
AcDbSymbolTableRecord
100
AcDbBlockTableRecord
  2
BLOCK_74
  0
BLOCK_RECORD
  5
452
330
1
100
AcDbSymbolTableRecord
100
AcDbBlockTableRecord
  2
BLOCK_75
  0
BLOCK_RECORD
  5
45A
330
1
100
AcDbSymbolTableRecord
100
AcDbBlockTableRecord
  2
BLOCK_76
  0
BLOCK_RECORD
  5
462
330
1
100
AcDbSymbolTableRecord
100
AcDbBlockTableRecord
  2
BLOCK_77
  0
BLOCK_RECORD
  5
46A
330
1
100
AcDbSymbolTableRecord
100
AcDbBlockTableRecord
  2
BLOCK_78
  0
BLOCK_RECORD
  5
472
330
1
100
AcDbSymbolTableRecord
100
AcDbBlockTableRecord
  2
BLOCK_79
  0
BLOCK_RECORD
  5
47A
330
1
100
AcDbSymbolTableRecord
100
AcDbBlockTableRecord
  2
BLOCK_80
  0
BLOCK_RECORD
  5
482
330
1
100
AcDbSymbolTableRecord
100
AcDbBlockTableRecord
  2
BLOCK_81
  0
BLOCK_RECORD
  5
48A
330
1
100
AcDbSymbolTableRecord
100
AcDbBlockTableRecord
  2
BLOCK_82
  0
BLOCK_RECORD
  5
492
330
1
100
AcDbSymbolTableRecord
100
AcDbBlockTableRecord
  2
BLOCK_83
  0
BLOCK_RECORD
  5
49B
330
1
100
AcDbSymbolTableRecord
100
AcDbBlockTableRecord
  2
BLOCK_84
  0
BLOCK_RECORD
  5
49F
330
1
100
AcDbSymbolTableRecord
100
AcDbBlockTableRecord
  2
BLOCK_85
  0
BLOCK_RECORD
  5
4B6
330
1
100
AcDbSymbolTableRecord
100
AcDbBlockTableRecord
  2
BLOCK_86
  0
BLOCK_RECORD
  5
4BF
330
1
100
AcDbSymbolTableRecord
100
AcDbBlockTableRecord
  2
BLOCK_87
  0
BLOCK_RECORD
  5
4CD
330
1
100
AcDbSymbolTableRecord
100
AcDbBlockTableRecord
  2
BLOCK_88
  0
BLOCK_RECORD
  5
4D3
330
1
100
AcDbSymbolTableRecord
100
AcDbBlockTableRecord
  2
BLOCK_89
  0
BLOCK_RECORD
  5
4DC
330
1
100
AcDbSymbolTableRecord
100
AcDbBlockTableRecord
  2
BLOCK_90
  0
BLOCK_RECORD
  5
4E5
330
1
100
AcDbSymbolTableRecord
100
AcDbBlockTableRecord
  2
BLOCK_91
  0
BLOCK_RECORD
  5
4EE
330
1
100
AcDbSymbolTableRecord
100
AcDbBlockTableRecord
  2
BLOCK_92
  0
BLOCK_RECORD
  5
4F7
330
1
100
AcDbSymbolTableRecord
100
AcDbBlockTableRecord
  2
BLOCK_93
  0
BLOCK_RECORD
  5
50B
330
1
100
AcDbSymbolTableRecord
100
AcDbBlockTableRecord
  2
BLOCK_94
  0
BLOCK_RECORD
  5
513
330
1
100
AcDbSymbolTableRecord
100
AcDbBlockTableRecord
  2
BLOCK_95
  0
BLOCK_RECORD
  5
51E
330
1
100
AcDbSymbolTableRecord
100
AcDbBlockTableRecord
  2
BLOCK_96
  0
BLOCK_RECORD
  5
529
330
1
100
AcDbSymbolTableRecord
100
AcDbBlockTableRecord
  2
BLOCK_97
  0
BLOCK_RECORD
  5
52F
330
1
100
AcDbSymbolTableRecord
100
AcDbBlockTableRecord
  2
BLOCK_98
  0
BLOCK_RECORD
  5
537
330
1
100
AcDbSymbolTableRecord
100
AcDbBlockTableRecord
  2
BLOCK_99
  0
BLOCK_RECORD
  5
53F
330
1
100
AcDbSymbolTableRecord
100
AcDbBlockTableRecord
  2
BLOCK_100
  0
BLOCK_RECORD
  5
547
330
1
100
AcDbSymbolTableRecord
100
AcDbBlockTableRecord
  2
BLOCK_101
  0
BLOCK_RECORD
  5
552
330
1
100
AcDbSymbolTableRecord
100
AcDbBlockTableRecord
  2
BLOCK_102
  0
BLOCK_RECORD
  5
55D
330
1
100
AcDbSymbolTableRecord
100
AcDbBlockTableRecord
  2
BLOCK_103
  0
BLOCK_RECORD
  5
563
330
1
100
AcDbSymbolTableRecord
100
AcDbBlockTableRecord
  2
BLOCK_104
  0
BLOCK_RECORD
  5
567
330
1
100
AcDbSymbolTableRecord
100
AcDbBlockTableRecord
  2
BLOCK_105
  0
BLOCK_RECORD
  5
56F
330
1
100
AcDbSymbolTableRecord
100
AcDbBlockTableRecord
  2
BLOCK_106
  0
BLOCK_RECORD
  5
577
330
1
100
AcDbSymbolTableRecord
100
AcDbBlockTableRecord
  2
BLOCK_107
  0
BLOCK_RECORD
  5
57F
330
1
100
AcDbSymbolTableRecord
100
AcDbBlockTableRecord
  2
BLOCK_108
  0
BLOCK_RECORD
  5
587
330
1
100
AcDbSymbolTableRecord
100
AcDbBlockTableRecord
  2
BLOCK_109
  0
BLOCK_RECORD
  5
58C
330
1
100
AcDbSymbolTableRecord
100
AcDbBlockTableRecord
  2
BLOCK_110
  0
BLOCK_RECORD
  5
591
330
1
100
AcDbSymbolTableRecord
100
AcDbBlockTableRecord
  2
BLOCK_111
  0
BLOCK_RECORD
  5
599
330
1
100
AcDbSymbolTableRecord
100
AcDbBlockTableRecord
  2
BLOCK_112
  0
BLOCK_RECORD
  5
5A1
330
1
100
AcDbSymbolTableRecord
100
AcDbBlockTableRecord
  2
BLOCK_113
  0
BLOCK_RECORD
  5
5A9
330
1
100
AcDbSymbolTableRecord
100
AcDbBlockTableRecord
  2
BLOCK_114
  0
BLOCK_RECORD
  5
5AE
330
1
100
AcDbSymbolTableRecord
100
AcDbBlockTableRecord
  2
BLOCK_115
  0
BLOCK_RECORD
  5
5B6
330
1
100
AcDbSymbolTableRecord
100
AcDbBlockTableRecord
  2
BLOCK_116
  0
BLOCK_RECORD
  5
5BB
330
1
100
AcDbSymbolTableRecord
100
AcDbBlockTableRecord
  2
BLOCK_117
  0
BLOCK_RECORD
  5
5C3
330
1
100
AcDbSymbolTableRecord
100
AcDbBlockTableRecord
  2
BLOCK_118
  0
BLOCK_RECORD
  5
5CB
330
1
100
AcDbSymbolTableRecord
100
AcDbBlockTableRecord
  2
BLOCK_119
  0
BLOCK_RECORD
  5
5D3
330
1
100
AcDbSymbolTableRecord
100
AcDbBlockTableRecord
  2
BLOCK_120
  0
BLOCK_RECORD
  5
5DB
330
1
100
AcDbSymbolTableRecord
100
AcDbBlockTableRecord
  2
BLOCK_121
  0
BLOCK_RECORD
  5
5E3
330
1
100
AcDbSymbolTableRecord
100
AcDbBlockTableRecord
  2
BLOCK_122
  0
BLOCK_RECORD
  5
5E8
330
1
100
AcDbSymbolTableRecord
100
AcDbBlockTableRecord
  2
BLOCK_123
  0
BLOCK_RECORD
  5
5ED
330
1
100
AcDbSymbolTableRecord
100
AcDbBlockTableRecord
  2
BLOCK_124
  0
BLOCK_RECORD
  5
5F5
330
1
100
AcDbSymbolTableRecord
100
AcDbBlockTableRecord
  2
BLOCK_125
  0
BLOCK_RECORD
  5
5FD
330
1
100
AcDbSymbolTableRecord
100
AcDbBlockTableRecord
  2
BLOCK_126
  0
BLOCK_RECORD
  5
605
330
1
100
AcDbSymbolTableRecord
100
AcDbBlockTableRecord
  2
BLOCK_127
  0
BLOCK_RECORD
  5
60D
330
1
100
AcDbSymbolTableRecord
100
AcDbBlockTableRecord
  2
BLOCK_128
  0
BLOCK_RECORD
  5
612
330
1
100
AcDbSymbolTableRecord
100
AcDbBlockTableRecord
  2
BLOCK_129
  0
BLOCK_RECORD
  5
618
330
1
100
AcDbSymbolTableRecord
100
AcDbBlockTableRecord
  2
BLOCK_130
  0
BLOCK_RECORD
  5
61D
330
1
100
AcDbSymbolTableRecord
100
AcDbBlockTableRecord
  2
BLOCK_131
  0
BLOCK_RECORD
  5
625
330
1
100
AcDbSymbolTableRecord
100
AcDbBlockTableRecord
  2
BLOCK_132
  0
BLOCK_RECORD
  5
62A
330
1
100
AcDbSymbolTableRecord
100
AcDbBlockTableRecord
  2
BLOCK_133
  0
BLOCK_RECORD
  5
62F
330
1
100
AcDbSymbolTableRecord
100
AcDbBlockTableRecord
  2
BLOCK_134
  0
BLOCK_RECORD
  5
634
330
1
100
AcDbSymbolTableRecord
100
AcDbBlockTableRecord
  2
BLOCK_135
  0
BLOCK_RECORD
  5
639
330
1
100
AcDbSymbolTableRecord
100
AcDbBlockTableRecord
  2
BLOCK_136
  0
BLOCK_RECORD
  5
641
330
1
100
AcDbSymbolTableRecord
100
AcDbBlockTableRecord
  2
BLOCK_137
  0
BLOCK_RECORD
  5
646
330
1
100
AcDbSymbolTableRecord
100
AcDbBlockTableRecord
  2
BLOCK_138
  0
BLOCK_RECORD
  5
64B
330
1
100
AcDbSymbolTableRecord
100
AcDbBlockTableRecord
  2
BLOCK_139
  0
BLOCK_RECORD
  5
650
330
1
100
AcDbSymbolTableRecord
100
AcDbBlockTableRecord
  2
BLOCK_140
  0
BLOCK_RECORD
  5
658
330
1
100
AcDbSymbolTableRecord
100
AcDbBlockTableRecord
  2
BLOCK_141
  0
BLOCK_RECORD
  5
65D
330
1
100
AcDbSymbolTableRecord
100
AcDbBlockTableRecord
  2
BLOCK_142
  0
BLOCK_RECORD
  5
665
330
1
100
AcDbSymbolTableRecord
100
AcDbBlockTableRecord
  2
BLOCK_143
  0
BLOCK_RECORD
  5
66A
330
1
100
AcDbSymbolTableRecord
100
AcDbBlockTableRecord
  2
BLOCK_144
  0
BLOCK_RECORD
  5
66F
330
1
100
AcDbSymbolTableRecord
100
AcDbBlockTableRecord
  2
BLOCK_145
  0
BLOCK_RECORD
  5
674
330
1
100
AcDbSymbolTableRecord
100
AcDbBlockTableRecord
  2
BLOCK_146
  0
BLOCK_RECORD
  5
67C
330
1
100
AcDbSymbolTableRecord
100
AcDbBlockTableRecord
  2
BLOCK_147
  0
BLOCK_RECORD
  5
681
330
1
100
AcDbSymbolTableRecord
100
AcDbBlockTableRecord
  2
BLOCK_148
  0
BLOCK_RECORD
  5
686
330
1
100
AcDbSymbolTableRecord
100
AcDbBlockTableRecord
  2
BLOCK_149
  0
BLOCK_RECORD
  5
68E
330
1
100
AcDbSymbolTableRecord
100
AcDbBlockTableRecord
  2
BLOCK_150
  0
BLOCK_RECORD
  5
693
330
1
100
AcDbSymbolTableRecord
100
AcDbBlockTableRecord
  2
BLOCK_151
  0
BLOCK_RECORD
  5
698
330
1
100
AcDbSymbolTableRecord
100
AcDbBlockTableRecord
  2
BLOCK_152
  0
BLOCK_RECORD
  5
69D
330
1
100
AcDbSymbolTableRecord
100
AcDbBlockTableRecord
  2
BLOCK_153
  0
BLOCK_RECORD
  5
6A2
330
1
100
AcDbSymbolTableRecord
100
AcDbBlockTableRecord
  2
BLOCK_154
  0
BLOCK_RECORD
  5
6A7
330
1
100
AcDbSymbolTableRecord
100
AcDbBlockTableRecord
  2
BLOCK_155
  0
BLOCK_RECORD
  5
6AF
330
1
100
AcDbSymbolTableRecord
100
AcDbBlockTableRecord
  2
BLOCK_156
  0
BLOCK_RECORD
  5
6B4
330
1
100
AcDbSymbolTableRecord
100
AcDbBlockTableRecord
  2
BLOCK_157
  0
BLOCK_RECORD
  5
6B9
330
1
100
AcDbSymbolTableRecord
100
AcDbBlockTableRecord
  2
BLOCK_158
  0
ENDTAB
  0
ENDSEC
  0
SECTION
  2
BLOCKS
  0
BLOCK
  5
20
330
1F
100
AcDbEntity
  8
0
100
AcDbBlockBegin
  2
*MODEL_SPACE
 70
     0
 10
0.0
 20
0.0
 30
0.0
  3
*MODEL_SPACE
  1

  0
ENDBLK
  5
21
330
1F
100
AcDbEntity
  8
0
100
AcDbBlockEnd
  0
BLOCK
  5
1C
330
1B
100
AcDbEntity
 67
     1
  8
0
100
AcDbBlockBegin
  2
*PAPER_SPACE
 70
     0
 10
0.0
 20
0.0
 30
0.0
  3
*PAPER_SPACE
  1

  0
ENDBLK
  5
1D
330
1B
100
AcDbEntity
 67
     1
  8
0
100
AcDbBlockEnd
  0
BLOCK
  5
44
330
42
100
AcDbEntity
  8
0
100
AcDbBlockBegin
  2
BLOCK_2
 70
     0
 10
0.0
 20
0.0
 30
0.0
  3
BLOCK_2
  1

  0
POLYLINE
  5
46
330
42
100
AcDbEntity
  8
CARTIGLIO
 62
   250
100
AcDb2dPolyline
 66
     1
 10
0.0
 20
0.0
 30
0.0
  0
VERTEX
  5
47
330
46
100
AcDbEntity
  8
CARTIGLIO
 62
   250
100
AcDbVertex
100
AcDb2dVertex
 10
2099.999999474997
 20
-2969.999999257499
 30
0.0
  0
VERTEX
  5
48
330
46
100
AcDbEntity
  8
CARTIGLIO
 62
   250
100
AcDbVertex
100
AcDb2dVertex
 10
0.0
 20
-2969.999999257499
 30
0.0
  0
VERTEX
  5
49
330
46
100
AcDbEntity
  8
CARTIGLIO
 62
   250
100
AcDbVertex
100
AcDb2dVertex
 10
0.0
 20
0.0
 30
0.0
  0
VERTEX
  5
4A
330
46
100
AcDbEntity
  8
CARTIGLIO
 62
   250
100
AcDbVertex
100
AcDb2dVertex
 10
2099.999999474997
 20
0.0
 30
0.0
  0
VERTEX
  5
4B
330
46
100
AcDbEntity
  8
CARTIGLIO
 62
   250
100
AcDbVertex
100
AcDb2dVertex
 10
2099.999999474997
 20
-2969.999999257499
 30
0.0
  0
SEQEND
  5
4C
330
46
100
AcDbEntity
  8
CARTIGLIO
 62
   250
  0
POLYLINE
  5
4D
330
42
100
AcDbEntity
  8
CARTIGLIO
 62
   250
100
AcDb2dPolyline
 66
     1
 10
0.0
 20
0.0
 30
0.0
  0
VERTEX
  5
4E
330
4D
100
AcDbEntity
  8
CARTIGLIO
 62
   250
100
AcDbVertex
100
AcDb2dVertex
 10
2069.999999482498
 20
-2939.999999264999
 30
0.0
  0
VERTEX
  5
4F
330
4D
100
AcDbEntity
  8
CARTIGLIO
 62
   250
100
AcDbVertex
100
AcDb2dVertex
 10
29.99999999249639
 20
-2939.999999264999
 30
0.0
  0
VERTEX
  5
50
330
4D
100
AcDbEntity
  8
CARTIGLIO
 62
   250
100
AcDbVertex
100
AcDb2dVertex
 10
29.99999999249639
 20
-29.99999999249639
 30
0.0
  0
VERTEX
  5
51
330
4D
100
AcDbEntity
  8
CARTIGLIO
 62
   250
100
AcDbVertex
100
AcDb2dVertex
 10
2069.999999482498
 20
-29.99999999249639
 30
0.0
  0
VERTEX
  5
52
330
4D
100
AcDbEntity
  8
CARTIGLIO
 62
   250
100
AcDbVertex
100
AcDb2dVertex
 10
2069.999999482498
 20
-2939.999999264999
 30
0.0
  0
SEQEND
  5
53
330
4D
100
AcDbEntity
  8
CARTIGLIO
 62
   250
  0
INSERT
  5
55
330
42
100
AcDbEntity
  8
CARTIGLIO
100
AcDbBlockReference
  2
BLOCK_3
 10
0.0
 20
0.0
 30
0.0
  0
POLYLINE
  5
DD
330
42
100
AcDbEntity
  8
CARTIGLIO
 62
   250
100
AcDb2dPolyline
 66
     1
 10
0.0
 20
0.0
 30
0.0
  0
VERTEX
  5
DE
330
DD
100
AcDbEntity
  8
CARTIGLIO
 62
   250
100
AcDbVertex
100
AcDb2dVertex
 10
1811.513846816591
 20
-2856.666921389464
 30
0.0
  0
VERTEX
  5
DF
330
DD
100
AcDbEntity
  8
CARTIGLIO
 62
   250
100
AcDbVertex
100
AcDb2dVertex
 10
1811.513900646208
 20
-2598.812076495151
 30
0.0
  0
SEQEND
  5
E0
330
DD
100
AcDbEntity
  8
CARTIGLIO
 62
   250
  0
POLYLINE
  5
E1
330
42
100
AcDbEntity
  8
CARTIGLIO
 62
   250
100
AcDb2dPolyline
 66
     1
 10
0.0
 20
0.0
 30
0.0
  0
VERTEX
  5
E2
330
E1
100
AcDbEntity
  8
CARTIGLIO
 62
   250
100
AcDbVertex
100
AcDb2dVertex
 10
1474.069598477324
 20
-2940.000252045408
 30
0.0
  0
VERTEX
  5
E3
330
E1
100
AcDbEntity
  8
CARTIGLIO
 62
   250
100
AcDbVertex
100
AcDb2dVertex
 10
1474.069598477324
 20
-2856.666921389464
 30
0.0
  0
SEQEND
  5
E4
330
E1
100
AcDbEntity
  8
CARTIGLIO
 62
   250
  0
POLYLINE
  5
E5
330
42
100
AcDbEntity
  8
CARTIGLIO
 62
   250
100
AcDb2dPolyline
 66
     1
 10
0.0
 20
0.0
 30
0.0
  0
VERTEX
  5
E6
330
E5
100
AcDbEntity
  8
CARTIGLIO
 62
   250
100
AcDbVertex
100
AcDb2dVertex
 10
768.7779158804808
 20
-2940.000252045408
 30
0.0
  0
VERTEX
  5
E7
330
E5
100
AcDbEntity
  8
CARTIGLIO
 62
   250
100
AcDbVertex
100
AcDb2dVertex
 10
768.7779158804808
 20
-2598.812076495151
 30
0.0
  0
SEQEND
  5
E8
330
E5
100
AcDbEntity
  8
CARTIGLIO
 62
   250
  0
POLYLINE
  5
E9
330
42
100
AcDbEntity
  8
CARTIGLIO
 62
   250
100
AcDb2dPolyline
 66
     1
 10
0.0
 20
0.0
 30
0.0
  0
VERTEX
  5
EA
330
E9
100
AcDbEntity
  8
CARTIGLIO
 62
   250
100
AcDbVertex
100
AcDb2dVertex
 10
1031.874999806285
 20
-2940.000255337747
 30
0.0
  0
VERTEX
  5
EB
330
E9
100
AcDbEntity
  8
CARTIGLIO
 62
   250
100
AcDbVertex
100
AcDb2dVertex
 10
1031.874999806285
 20
-2598.812076495151
 30
0.0
  0
SEQEND
  5
EC
330
E9
100
AcDbEntity
  8
CARTIGLIO
 62
   250
  0
POLYLINE
  5
ED
330
42
100
AcDbEntity
  8
CARTIGLIO
 62
   250
100
AcDb2dPolyline
 66
     1
 10
0.0
 20
0.0
 30
0.0
  0
VERTEX
  5
EE
330
ED
100
AcDbEntity
  8
CARTIGLIO
 62
   250
100
AcDbVertex
100
AcDb2dVertex
 10
1243.819783042203
 20
-2940.000255337747
 30
0.0
  0
VERTEX
  5
EF
330
ED
100
AcDbEntity
  8
CARTIGLIO
 62
   250
100
AcDbVertex
100
AcDb2dVertex
 10
1243.819836871819
 20
-2856.666891761385
 30
0.0
  0
SEQEND
  5
F0
330
ED
100
AcDbEntity
  8
CARTIGLIO
 62
   250
  0
MTEXT
  5
F1
330
42
100
AcDbEntity
  8
CARTIGLIO
 62
   250
100
AcDbMText
 10
1043.27046050375
 20
-2886.583320425849
 30
0.0
 40
17.48366666229575
 41
0.0
 71
     7
 72
     1
  1
\fArial|b0|i0|c0|p34;\W1;Date
  0
MTEXT
  5
F2
330
42
100
AcDbEntity
  8
CARTIGLIO
 62
   250
100
AcDbMText
 10
1043.27046050375
 20
-2924.682631397227
 30
0.0
 40
22.47899999438025
 41
0.0
 71
     7
 72
     1
  1
\fArial|b0|i0|c0|p34;\W1;03/10/2017
  0
MTEXT
  5
F3
330
42
100
AcDbEntity
  8
CARTIGLIO
 62
   250
100
AcDbMText
 10
1255.215264748316
 20
-2886.583320425849
 30
0.0
 40
17.48366666229575
 41
0.0
 71
     7
 72
     1
  1
\fArial|b0|i0|c0|p34;\W1;Rev.
  0
MTEXT
  5
F4
330
42
100
AcDbEntity
  8
CARTIGLIO
 62
   250
100
AcDbMText
 10
1255.215264748316
 20
-2924.682631397227
 30
0.0
 40
22.47899999438025
 41
0.0
 71
     7
 72
     1
  1
\fArial|b0|i0|c0|p34;\W1;01
  0
MTEXT
  5
F5
330
42
100
AcDbEntity
  8
CARTIGLIO
 62
   250
100
AcDbMText
 10
780.1734167903625
 20
-2886.583320425849
 30
0.0
 40
17.48366666229575
 41
0.0
 71
     7
 72
     1
  1
\fArial|b0|i0|c0|p34;\W1;Originated from
  0
MTEXT
  5
F6
330
42
100
AcDbEntity
  8
CARTIGLIO
 62
   250
100
AcDbMText
 10
780.1734167903625
 20
-2924.682631397227
 30
0.0
 40
22.47899999438025
 41
0.0
 71
     7
 72
     1
  1
\fArial|b0|i0|c0|p34;\W1;B.M.
  0
MTEXT
  5
F7
330
42
100
AcDbEntity
  8
CARTIGLIO
 62
   250
100
AcDbMText
 10
780.1734167903625
 20
-2643.166653820037
 30
0.0
 40
17.48366666229575
 41
0.0
 71
     7
 72
     1
  1
\fArial|b0|i0|c0|p34;\W1;Description
  0
MTEXT
  5
F8
330
42
100
AcDbEntity
  8
CARTIGLIO
 62
   250
100
AcDbMText
 10
1043.269276252176
 20
-2643.166653820037
 30
0.0
 40
22.47899999438025
 41
0.0
 71
     7
 72
     1
  1
\fArial|b0|i0|c0|p34;\W1;Dimensional drawing
  0
POLYLINE
  5
F9
330
42
100
AcDbEntity
  8
CARTIGLIO
 62
   250
100
AcDb2dPolyline
 66
     1
 10
0.0
 20
0.0
 30
0.0
  0
VERTEX
  5
FA
330
F9
100
AcDbEntity
  8
CARTIGLIO
 62
   250
100
AcDbVertex
100
AcDb2dVertex
 10
768.7778770028814
 20
-2598.812076495151
 30
0.0
  0
VERTEX
  5
FB
330
F9
100
AcDbEntity
  8
CARTIGLIO
 62
   250
100
AcDbVertex
100
AcDb2dVertex
 10
2069.521221390016
 20
-2598.812076495151
 30
0.0
  0
SEQEND
  5
FC
330
F9
100
AcDbEntity
  8
CARTIGLIO
 62
   250
  0
POLYLINE
  5
FD
330
42
100
AcDbEntity
  8
CARTIGLIO
 62
   250
100
AcDb2dPolyline
 66
     1
 10
0.0
 20
0.0
 30
0.0
  0
VERTEX
  5
FE
330
FD
100
AcDbEntity
  8
CARTIGLIO
 62
   250
100
AcDbVertex
100
AcDb2dVertex
 10
768.7779158804808
 20
-2856.666920696968
 30
0.0
  0
VERTEX
  5
FF
330
FD
100
AcDbEntity
  8
CARTIGLIO
 62
   250
100
AcDbVertex
100
AcDb2dVertex
 10
2069.999999482498
 20
-2856.666920696968
 30
0.0
  0
SEQEND
  5
100
330
FD
100
AcDbEntity
  8
CARTIGLIO
 62
   250
  0
POLYLINE
  5
101
330
42
100
AcDbEntity
  8
CARTIGLIO
 62
   250
100
AcDb2dPolyline
 66
     1
 10
0.0
 20
0.0
 30
0.0
  0
VERTEX
  5
102
330
101
100
AcDbEntity
  8
CARTIGLIO
 62
   250
100
AcDbVertex
100
AcDb2dVertex
 10
768.7779158804808
 20
-2792.203209646517
 30
0.0
  0
VERTEX
  5
103
330
101
100
AcDbEntity
  8
CARTIGLIO
 62
   250
100
AcDbVertex
100
AcDb2dVertex
 10
1811.513900646208
 20
-2792.203209646517
 30
0.0
  0
SEQEND
  5
104
330
101
100
AcDbEntity
  8
CARTIGLIO
 62
   250
  0
POLYLINE
  5
105
330
42
100
AcDbEntity
  8
CARTIGLIO
 62
   250
100
AcDb2dPolyline
 66
     1
 10
0.0
 20
0.0
 30
0.0
  0
VERTEX
  5
106
330
105
100
AcDbEntity
  8
CARTIGLIO
 62
   250
100
AcDbVertex
100
AcDb2dVertex
 10
768.7779158804808
 20
-2727.73949859606
 30
0.0
  0
VERTEX
  5
107
330
105
100
AcDbEntity
  8
CARTIGLIO
 62
   250
100
AcDbVertex
100
AcDb2dVertex
 10
1811.513900646208
 20
-2727.73949859606
 30
0.0
  0
SEQEND
  5
108
330
105
100
AcDbEntity
  8
CARTIGLIO
 62
   250
  0
POLYLINE
  5
109
330
42
100
AcDbEntity
  8
CARTIGLIO
 62
   250
100
AcDb2dPolyline
 66
     1
 10
0.0
 20
0.0
 30
0.0
  0
VERTEX
  5
10A
330
109
100
AcDbEntity
  8
CARTIGLIO
 62
   250
100
AcDbVertex
100
AcDb2dVertex
 10
768.7779158804808
 20
-2663.275787545602
 30
0.0
  0
VERTEX
  5
10B
330
109
100
AcDbEntity
  8
CARTIGLIO
 62
   250
100
AcDbVertex
100
AcDb2dVertex
 10
1811.513900646208
 20
-2663.275787545602
 30
0.0
  0
SEQEND
  5
10C
330
109
100
AcDbEntity
  8
CARTIGLIO
 62
   250
  0
MTEXT
  5
10D
330
42
100
AcDbEntity
  8
CARTIGLIO
 62
   250
100
AcDbMText
 10
780.1734167903625
 20
-2707.630368800894
 30
0.0
 40
17.48366666229575
 41
0.0
 71
     7
 72
     1
  1
\fArial|b0|i0|c0|p34;\W1;Installation type
  0
MTEXT
  5
10E
330
42
100
AcDbEntity
  8
CARTIGLIO
 62
   250
100
AcDbMText
 10
780.1734167903625
 20
-2772.094087146103
 30
0.0
 40
17.48366666229575
 41
0.0
 71
     7
 72
     1
  1
\fArial|b0|i0|c0|p34;\W1;Pump type
  0
MTEXT
  5
10F
330
42
100
AcDbEntity
  8
CARTIGLIO
 62
   250
100
AcDbMText
 10
1043.269276252176
 20
-2772.094087146103
 30
0.0
 40
22.47899999438025
 41
0.0
 71
     7
 72
     1
  1
\fArial|b0|i0|c0|p34;\W1;See tab.1
  0
MTEXT
  5
110
330
42
100
AcDbEntity
  8
CARTIGLIO
 62
   250
100
AcDbMText
 10
780.1734167903625
 20
-2836.557802126961
 30
0.0
 40
17.48366666229575
 41
0.0
 71
     7
 72
     1
  1
\fArial|b0|i0|c0|p34;\W1;Accessory
  0
ENDBLK
  5
45
330
42
100
AcDbEntity
  8
0
100
AcDbBlockEnd
  0
BLOCK
  5
56
330
54
100
AcDbEntity
  8
0
100
AcDbBlockBegin
  2
BLOCK_3
 70
     0
 10
0.0
 20
0.0
 30
0.0
  3
BLOCK_3
  1

  0
SPLINE
  5
58
330
54
100
AcDbEntity
  8
CARTIGLIO
 62
   250
100
AcDbSpline
210
0.0
220
0.0
230
1.0
 70
    11
 71
     3
 72
    29
 73
    25
 74
     0
 42
0.0000000001
 43
0.0000000001
 12
1.0
 22
0.0
 32
0.0
 13
1.0
 23
0.0
 33
0.0
 40
0.0
 40
0.0
 40
0.0
 40
0.0
 40
1.0
 40
1.0
 40
1.0
 40
2.0
 40
2.0
 40
2.0
 40
3.0
 40
3.0
 40
3.0
 40
4.0
 40
4.0
 40
4.0
 40
5.0
 40
5.0
 40
5.0
 40
6.0
 40
6.0
 40
6.0
 40
7.0
 40
7.0
 40
7.0
 40
8.0
 40
8.0
 40
8.0
 40
8.0
 10
2049.418386249963
 20
-2644.176250180939
 30
0.0
 10
2049.418386249963
 20
-2644.176250180939
 30
0.0
 10
2049.418386249963
 20
-2811.302743947933
 30
0.0
 10
2049.418386249963
 20
-2811.302743947933
 30
0.0
 10
2049.418386249963
 20
-2820.079788724803
 30
0.0
 10
2042.348416304901
 20
-2827.26100717861
 30
0.0
 10
2033.707341927593
 20
-2827.26100717861
 30
0.0
 10
2033.707341927593
 20
-2827.26100717861
 30
0.0
 10
1847.327725947038
 20
-2827.26100717861
 30
0.0
 10
1847.327725947038
 20
-2827.26100717861
 30
0.0
 10
1838.686651569743
 20
-2827.26100717861
 30
0.0
 10
1831.616681624668
 20
-2820.079788724803
 30
0.0
 10
1831.616681624668
 20
-2811.302743947933
 30
0.0
 10
1831.616681624668
 20
-2811.302743947933
 30
0.0
 10
1831.616681624668
 20
-2644.176250180939
 30
0.0
 10
1831.616681624668
 20
-2644.176250180939
 30
0.0
 10
1831.616681624668
 20
-2635.399205404057
 30
0.0
 10
1838.686651569743
 20
-2628.217986950262
 30
0.0
 10
1847.327725947038
 20
-2628.217986950262
 30
0.0
 10
1847.327725947038
 20
-2628.217986950262
 30
0.0
 10
2033.707341927593
 20
-2628.217986950262
 30
0.0
 10
2033.707341927593
 20
-2628.217986950262
 30
0.0
 10
2042.348416304901
 20
-2628.217986950262
 30
0.0
 10
2049.418386249963
 20
-2635.399205404057
 30
0.0
 10
2049.418386249963
 20
-2644.176250180939
 30
0.0
  0
SPLINE
  5
59
330
54
100
AcDbEntity
  8
CARTIGLIO
 62
   250
100
AcDbSpline
210
0.0
220
0.0
230
1.0
 70
    11
 71
     3
 72
    29
 73
    25
 74
     0
 42
0.0000000001
 43
0.0000000001
 12
1.0
 22
0.0
 32
0.0
 13
1.0
 23
0.0
 33
0.0
 40
0.0
 40
0.0
 40
0.0
 40
0.0
 40
1.0
 40
1.0
 40
1.0
 40
2.0
 40
2.0
 40
2.0
 40
3.0
 40
3.0
 40
3.0
 40
4.0
 40
4.0
 40
4.0
 40
5.0
 40
5.0
 40
5.0
 40
6.0
 40
6.0
 40
6.0
 40
7.0
 40
7.0
 40
7.0
 40
8.0
 40
8.0
 40
8.0
 40
8.0
 10
2041.882763417036
 20
-2645.589803655576
 30
0.0
 10
2041.882763417036
 20
-2645.589803655576
 30
0.0
 10
2041.882763417036
 20
-2809.889059162903
 30
0.0
 10
2041.882763417036
 20
-2809.889059162903
 30
0.0
 10
2041.882763417036
 20
-2815.655897770938
 30
0.0
 10
2037.237534911088
 20
-2820.374220268425
 30
0.0
 10
2031.560033403833
 20
-2820.374220268425
 30
0.0
 10
2031.560033403833
 20
-2820.374220268425
 30
0.0
 10
1849.475286039974
 20
-2820.374220268425
 30
0.0
 10
1849.475286039974
 20
-2820.374220268425
 30
0.0
 10
1843.797784532719
 20
-2820.374220268425
 30
0.0
 10
1839.152556026758
 20
-2815.655897770938
 30
0.0
 10
1839.152556026758
 20
-2809.889059162903
 30
0.0
 10
1839.152556026758
 20
-2809.889059162903
 30
0.0
 10
1839.152556026758
 20
-2645.589803655576
 30
0.0
 10
1839.152556026758
 20
-2645.589803655576
 30
0.0
 10
1839.152556026758
 20
-2639.822965047535
 30
0.0
 10
1843.797784532719
 20
-2635.104642550055
 30
0.0
 10
1849.475286039974
 20
-2635.104642550055
 30
0.0
 10
1849.475286039974
 20
-2635.104642550055
 30
0.0
 10
2031.560033403833
 20
-2635.104642550055
 30
0.0
 10
2031.560033403833
 20
-2635.104642550055
 30
0.0
 10
2037.237534911088
 20
-2635.104642550055
 30
0.0
 10
2041.882763417036
 20
-2639.822965047535
 30
0.0
 10
2041.882763417036
 20
-2645.589803655576
 30
0.0
  0
SPLINE
  5
5A
330
54
100
AcDbEntity
  8
CARTIGLIO
100
AcDbSpline
210
0.0
220
0.0
230
1.0
 70
    11
 71
     3
 72
    26
 73
    22
 74
     0
 42
0.0000000001
 43
0.0000000001
 12
1.0
 22
0.0
 32
0.0
 13
1.0
 23
0.0
 33
0.0
 40
0.0
 40
0.0
 40
0.0
 40
0.0
 40
1.0
 40
1.0
 40
1.0
 40
2.0
 40
2.0
 40
2.0
 40
3.0
 40
3.0
 40
3.0
 40
4.0
 40
4.0
 40
4.0
 40
5.0
 40
5.0
 40
5.0
 40
6.0
 40
6.0
 40
6.0
 40
7.0
 40
7.0
 40
7.0
 40
7.0
 10
1849.792627746122
 20
-2635.104468122652
 30
0.0
 10
1849.792627746122
 20
-2635.104468122652
 30
0.0
 10
2031.242751919645
 20
-2635.104468122652
 30
0.0
 10
2031.242751919645
 20
-2635.104468122652
 30
0.0
 10
2037.095027546513
 20
-2635.104468122652
 30
0.0
 10
2041.88261125786
 20
-2639.996343143989
 30
0.0
 10
2041.882879352192
 20
-2645.912123947581
 30
0.0
 10
2041.882879352192
 20
-2645.912123947581
 30
0.0
 10
2041.889239145256
 20
-2765.87554541551
 30
0.0
 10
2041.889239145256
 20
-2765.87554541551
 30
0.0
 10
2041.889239145256
 20
-2765.87554541551
 30
0.0
 10
1839.121792343171
 20
-2765.875285295893
 30
0.0
 10
1839.121792343171
 20
-2765.875285295893
 30
0.0
 10
1839.121792343171
 20
-2765.875285295893
 30
0.0
 10
1839.152504967991
 20
-2645.912123947581
 30
0.0
 10
1839.152504967991
 20
-2645.912123947581
 30
0.0
 10
1839.154164732497
 20
-2639.967886238402
 30
0.0
 10
1843.940352584691
 20
-2635.104468122652
 30
0.0
 10
1849.792627746122
 20
-2635.104468122652
 30
0.0
 10
1849.792627746122
 20
-2635.104468122652
 30
0.0
 10
1849.792627746122
 20
-2635.104468122652
 30
0.0
 10
1849.792627746122
 20
-2635.104468122652
 30
0.0
  0
SPLINE
  5
5B
330
54
100
AcDbEntity
  8
CARTIGLIO
100
AcDbSpline
210
0.0
220
0.0
230
1.0
 70
    11
 71
     3
 72
    20
 73
    16
 74
     0
 42
0.0000000001
 43
0.0000000001
 12
1.0
 22
0.0
 32
0.0
 13
1.0
 23
0.0
 33
0.0
 40
0.0
 40
0.0
 40
0.0
 40
0.0
 40
1.0
 40
1.0
 40
1.0
 40
2.0
 40
2.0
 40
2.0
 40
3.0
 40
3.0
 40
3.0
 40
4.0
 40
4.0
 40
4.0
 40
5.0
 40
5.0
 40
5.0
 40
5.0
 10
1940.431087919974
 20
-2650.507619308181
 30
0.0
 10
1969.190548802097
 20
-2650.507619308181
 30
0.0
 10
1992.612921978551
 20
-2672.945492414302
 30
0.0
 10
1992.612921978551
 20
-2700.561684174979
 30
0.0
 10
1992.612921978551
 20
-2728.177883161231
 30
0.0
 10
1969.190548802097
 20
-2750.61602541889
 30
0.0
 10
1940.431087919974
 20
-2750.61602541889
 30
0.0
 10
1911.820214591998
 20
-2750.61602541889
 30
0.0
 10
1888.397554703572
 20
-2728.177883161231
 30
0.0
 10
1888.397554703572
 20
-2700.561684174979
 30
0.0
 10
1888.397554703572
 20
-2672.945492414302
 30
0.0
 10
1911.820214591998
 20
-2650.507619308181
 30
0.0
 10
1940.431087919974
 20
-2650.507619308181
 30
0.0
 10
1940.431087919974
 20
-2650.507619308181
 30
0.0
 10
1940.431087919974
 20
-2650.507619308181
 30
0.0
 10
1940.431087919974
 20
-2650.507619308181
 30
0.0
  0
SPLINE
  5
5C
330
54
100
AcDbEntity
  8
CARTIGLIO
100
AcDbSpline
210
0.0
220
0.0
230
1.0
 70
    11
 71
     3
 72
    20
 73
    16
 74
     0
 42
0.0000000001
 43
0.0000000001
 12
1.0
 22
0.0
 32
0.0
 13
1.0
 23
0.0
 33
0.0
 40
0.0
 40
0.0
 40
0.0
 40
0.0
 40
1.0
 40
1.0
 40
1.0
 40
2.0
 40
2.0
 40
2.0
 40
3.0
 40
3.0
 40
3.0
 40
4.0
 40
4.0
 40
4.0
 40
5.0
 40
5.0
 40
5.0
 40
5.0
 10
1940.579396209221
 20
-2641.877441064664
 30
0.0
 10
1974.082428651597
 20
-2641.877441064664
 30
0.0
 10
2001.507695801485
 20
-2668.199122255991
 30
0.0
 10
2001.507695801485
 20
-2700.561684174979
 30
0.0
 10
2001.507695801485
 20
-2732.780627549801
 30
0.0
 10
1974.082428651597
 20
-2759.102305128337
 30
0.0
 10
1940.579396209221
 20
-2759.102305128337
 30
0.0
 10
1906.928051754069
 20
-2759.102305128337
 30
0.0
 10
1879.503071316152
 20
-2732.780627549801
 30
0.0
 10
1879.503071316152
 20
-2700.561684174979
 30
0.0
 10
1879.503071316152
 20
-2668.199122255991
 30
0.0
 10
1906.928051754069
 20
-2641.877441064664
 30
0.0
 10
1940.579396209221
 20
-2641.877441064664
 30
0.0
 10
1940.579396209221
 20
-2641.877441064664
 30
0.0
 10
1940.579396209221
 20
-2641.877441064664
 30
0.0
 10
1940.579396209221
 20
-2641.877441064664
 30
0.0
  0
SPLINE
  5
5D
330
54
100
AcDbEntity
  8
CARTIGLIO
100
AcDbSpline
210
0.0
220
0.0
230
1.0
 70
    11
 71
     3
 72
    32
 73
    28
 74
     0
 42
0.0000000001
 43
0.0000000001
 12
1.0
 22
0.0
 32
0.0
 13
1.0
 23
0.0
 33
0.0
 40
0.0
 40
0.0
 40
0.0
 40
0.0
 40
1.0
 40
1.0
 40
1.0
 40
2.0
 40
2.0
 40
2.0
 40
3.0
 40
3.0
 40
3.0
 40
4.0
 40
4.0
 40
4.0
 40
5.0
 40
5.0
 40
5.0
 40
6.0
 40
6.0
 40
6.0
 40
7.0
 40
7.0
 40
7.0
 40
8.0
 40
8.0
 40
8.0
 40
9.0
 40
9.0
 40
9.0
 40
9.0
 10
1911.877210700047
 20
-2734.264400430813
 30
0.0
 10
1911.877210700047
 20
-2734.264400430813
 30
0.0
 10
1974.015196553396
 20
-2734.212318702813
 30
0.0
 10
1974.015196553396
 20
-2734.212318702813
 30
0.0
 10
1974.015196553396
 20
-2734.212318702813
 30
0.0
 10
1974.015196553396
 20
-2725.309385169363
 30
0.0
 10
1974.015196553396
 20
-2725.309385169363
 30
0.0
 10
1974.015196553396
 20
-2725.309385169363
 30
0.0
 10
1931.087263555542
 20
-2725.309385169363
 30
0.0
 10
1931.087263555542
 20
-2725.309385169363
 30
0.0
 10
1931.087263555542
 20
-2725.309385169363
 30
0.0
 10
1979.381052269202
 20
-2673.245898058357
 30
0.0
 10
1979.381052269202
 20
-2673.245898058357
 30
0.0
 10
1957.917078323213
 20
-2644.610899040571
 30
0.0
 10
1920.355552123943
 20
-2652.42039627589
 30
0.0
 10
1904.257437617289
 20
-2670.642642596064
 30
0.0
 10
1904.257437617289
 20
-2670.642642596064
 30
0.0
 10
1910.374784057519
 20
-2676.94232066722
 30
0.0
 10
1910.374784057519
 20
-2676.94232066722
 30
0.0
 10
1926.47262302279
 20
-2661.323329809341
 30
0.0
 10
1949.170627683675
 20
-2659.501293041483
 30
0.0
 10
1968.005206994824
 20
-2672.517028437082
 30
0.0
 10
1968.005206994824
 20
-2672.517028437082
 30
0.0
 10
1911.877210700047
 20
-2734.264400430813
 30
0.0
 10
1911.877210700047
 20
-2734.264400430813
 30
0.0
 10
1911.877210700047
 20
-2734.264400430813
 30
0.0
 10
1911.877210700047
 20
-2734.264400430813
 30
0.0
 10
1911.877210700047
 20
-2734.264400430813
 30
0.0
  0
POLYLINE
  5
5E
330
54
100
AcDbEntity
  8
CARTIGLIO
100
AcDb2dPolyline
 66
     1
 10
0.0
 20
0.0
 30
0.0
  0
VERTEX
  5
5F
330
5E
100
AcDbEntity
  8
CARTIGLIO
100
AcDbVertex
100
AcDb2dVertex
 10
1947.049793082625
 20
-2670.723716823176
 30
0.0
  0
VERTEX
  5
60
330
5E
100
AcDbEntity
  8
CARTIGLIO
100
AcDbVertex
100
AcDb2dVertex
 10
1950.949195200907
 20
-2674.507124154921
 30
0.0
  0
VERTEX
  5
61
330
5E
100
AcDbEntity
  8
CARTIGLIO
100
AcDbVertex
100
AcDb2dVertex
 10
1921.054749561539
 20
-2693.42334071426
 30
0.0
  0
VERTEX
  5
62
330
5E
100
AcDbEntity
  8
CARTIGLIO
100
AcDbVertex
100
AcDb2dVertex
 10
1931.452765480563
 20
-2695.945521949442
 30
0.0
  0
VERTEX
  5
63
330
5E
100
AcDbEntity
  8
CARTIGLIO
100
AcDbVertex
100
AcDb2dVertex
 10
1906.185415589322
 20
-2709.489856536944
 30
0.0
  0
VERTEX
  5
64
330
5E
100
AcDbEntity
  8
CARTIGLIO
100
AcDbVertex
100
AcDb2dVertex
 10
1908.057224077463
 20
-2712.339828231557
 30
0.0
  0
VERTEX
  5
65
330
5E
100
AcDbEntity
  8
CARTIGLIO
100
AcDbVertex
100
AcDb2dVertex
 10
1898.828777083138
 20
-2712.213648540087
 30
0.0
  0
VERTEX
  5
66
330
5E
100
AcDbEntity
  8
CARTIGLIO
100
AcDbVertex
100
AcDb2dVertex
 10
1902.961976067443
 20
-2704.369792032132
 30
0.0
  0
VERTEX
  5
67
330
5E
100
AcDbEntity
  8
CARTIGLIO
100
AcDbVertex
100
AcDb2dVertex
 10
1904.833784555584
 20
-2707.118815638245
 30
0.0
  0
VERTEX
  5
68
330
5E
100
AcDbEntity
  8
CARTIGLIO
100
AcDbVertex
100
AcDb2dVertex
 10
1923.654251679525
 20
-2697.206740820455
 30
0.0
  0
VERTEX
  5
69
330
5E
100
AcDbEntity
  8
CARTIGLIO
100
AcDbVertex
100
AcDb2dVertex
 10
1911.95634320729
 20
-2694.684563198045
 30
0.0
  0
VERTEX
  5
6A
330
5E
100
AcDbEntity
  8
CARTIGLIO
100
AcDbVertex
100
AcDb2dVertex
 10
1947.049793082625
 20
-2670.723716823176
 30
0.0
  0
VERTEX
  5
6B
330
5E
100
AcDbEntity
  8
CARTIGLIO
100
AcDbVertex
100
AcDb2dVertex
 10
1947.049793082625
 20
-2670.723716823176
 30
0.0
  0
SEQEND
  5
6C
330
5E
100
AcDbEntity
  8
CARTIGLIO
  0
HATCH
  5
6D
330
54
100
AcDbEntity
  8
CARTIGLIO
 62
   250
100
AcDbHatch
 10
0.0
 20
0.0
 30
0.0
210
0.0
220
0.0
230
1.0
  2
SOLID
 70
     1
 71
     0
 91
        5
 92
        1
 93
        1
 72
     4
 94
        3
 73
     0
 74
     1
 95
       26
 96
       22
 40
0.0
 40
0.0
 40
0.0
 40
0.0
 40
1.0
 40
1.0
 40
1.0
 40
2.0
 40
2.0
 40
2.0
 40
3.0
 40
3.0
 40
3.0
 40
4.0
 40
4.0
 40
4.0
 40
5.0
 40
5.0
 40
5.0
 40
6.0
 40
6.0
 40
6.0
 40
7.0
 40
7.0
 40
7.0
 40
7.0
 10
1849.792627746122
 20
-2635.104468122652
 10
1849.792627746122
 20
-2635.104468122652
 10
2031.242751919645
 20
-2635.104468122652
 10
2031.242751919645
 20
-2635.104468122652
 10
2037.095027546513
 20
-2635.104468122652
 10
2041.88261125786
 20
-2639.996343143989
 10
2041.882879352192
 20
-2645.912123947581
 10
2041.882879352192
 20
-2645.912123947581
 10
2041.889239145256
 20
-2765.87554541551
 10
2041.889239145256
 20
-2765.87554541551
 10
2041.889239145256
 20
-2765.87554541551
 10
1839.121792343171
 20
-2765.875285295893
 10
1839.121792343171
 20
-2765.875285295893
 10
1839.121792343171
 20
-2765.875285295893
 10
1839.152504967991
 20
-2645.912123947581
 10
1839.152504967991
 20
-2645.912123947581
 10
1839.154164732497
 20
-2639.967886238402
 10
1843.940352584691
 20
-2635.104468122652
 10
1849.792627746122
 20
-2635.104468122652
 10
1849.792627746122
 20
-2635.104468122652
 10
1849.792627746122
 20
-2635.104468122652
 10
1849.792627746122
 20
-2635.104468122652
 97
        0
 92
        1
 93
        1
 72
     4
 94
        3
 73
     0
 74
     1
 95
       20
 96
       16
 40
0.0
 40
0.0
 40
0.0
 40
0.0
 40
1.0
 40
1.0
 40
1.0
 40
2.0
 40
2.0
 40
2.0
 40
3.0
 40
3.0
 40
3.0
 40
4.0
 40
4.0
 40
4.0
 40
5.0
 40
5.0
 40
5.0
 40
5.0
 10
1940.431087919974
 20
-2650.507619308181
 10
1969.190548802097
 20
-2650.507619308181
 10
1992.612921978551
 20
-2672.945492414302
 10
1992.612921978551
 20
-2700.561684174979
 10
1992.612921978551
 20
-2728.177883161231
 10
1969.190548802097
 20
-2750.61602541889
 10
1940.431087919974
 20
-2750.61602541889
 10
1911.820214591998
 20
-2750.61602541889
 10
1888.397554703572
 20
-2728.177883161231
 10
1888.397554703572
 20
-2700.561684174979
 10
1888.397554703572
 20
-2672.945492414302
 10
1911.820214591998
 20
-2650.507619308181
 10
1940.431087919974
 20
-2650.507619308181
 10
1940.431087919974
 20
-2650.507619308181
 10
1940.431087919974
 20
-2650.507619308181
 10
1940.431087919974
 20
-2650.507619308181
 97
        0
 92
        1
 93
        1
 72
     4
 94
        3
 73
     0
 74
     1
 95
       20
 96
       16
 40
0.0
 40
0.0
 40
0.0
 40
0.0
 40
1.0
 40
1.0
 40
1.0
 40
2.0
 40
2.0
 40
2.0
 40
3.0
 40
3.0
 40
3.0
 40
4.0
 40
4.0
 40
4.0
 40
5.0
 40
5.0
 40
5.0
 40
5.0
 10
1940.579396209221
 20
-2641.877441064664
 10
1974.082428651597
 20
-2641.877441064664
 10
2001.507695801485
 20
-2668.199122255991
 10
2001.507695801485
 20
-2700.561684174979
 10
2001.507695801485
 20
-2732.780627549801
 10
1974.082428651597
 20
-2759.102305128337
 10
1940.579396209221
 20
-2759.102305128337
 10
1906.928051754069
 20
-2759.102305128337
 10
1879.503071316152
 20
-2732.780627549801
 10
1879.503071316152
 20
-2700.561684174979
 10
1879.503071316152
 20
-2668.199122255991
 10
1906.928051754069
 20
-2641.877441064664
 10
1940.579396209221
 20
-2641.877441064664
 10
1940.579396209221
 20
-2641.877441064664
 10
1940.579396209221
 20
-2641.877441064664
 10
1940.579396209221
 20
-2641.877441064664
 97
        0
 92
        1
 93
        1
 72
     4
 94
        3
 73
     0
 74
     1
 95
       32
 96
       28
 40
0.0
 40
0.0
 40
0.0
 40
0.0
 40
1.0
 40
1.0
 40
1.0
 40
2.0
 40
2.0
 40
2.0
 40
3.0
 40
3.0
 40
3.0
 40
4.0
 40
4.0
 40
4.0
 40
5.0
 40
5.0
 40
5.0
 40
6.0
 40
6.0
 40
6.0
 40
7.0
 40
7.0
 40
7.0
 40
8.0
 40
8.0
 40
8.0
 40
9.0
 40
9.0
 40
9.0
 40
9.0
 10
1911.877210700047
 20
-2734.264400430813
 10
1911.877210700047
 20
-2734.264400430813
 10
1974.015196553396
 20
-2734.212318702813
 10
1974.015196553396
 20
-2734.212318702813
 10
1974.015196553396
 20
-2734.212318702813
 10
1974.015196553396
 20
-2725.309385169363
 10
1974.015196553396
 20
-2725.309385169363
 10
1974.015196553396
 20
-2725.309385169363
 10
1931.087263555542
 20
-2725.309385169363
 10
1931.087263555542
 20
-2725.309385169363
 10
1931.087263555542
 20
-2725.309385169363
 10
1979.381052269202
 20
-2673.245898058357
 10
1979.381052269202
 20
-2673.245898058357
 10
1957.917078323213
 20
-2644.610899040571
 10
1920.355552123943
 20
-2652.42039627589
 10
1904.257437617289
 20
-2670.642642596064
 10
1904.257437617289
 20
-2670.642642596064
 10
1910.374784057519
 20
-2676.94232066722
 10
1910.374784057519
 20
-2676.94232066722
 10
1926.47262302279
 20
-2661.323329809341
 10
1949.170627683675
 20
-2659.501293041483
 10
1968.005206994824
 20
-2672.517028437082
 10
1968.005206994824
 20
-2672.517028437082
 10
1911.877210700047
 20
-2734.264400430813
 10
1911.877210700047
 20
-2734.264400430813
 10
1911.877210700047
 20
-2734.264400430813
 10
1911.877210700047
 20
-2734.264400430813
 10
1911.877210700047
 20
-2734.264400430813
 97
        0
 92
        1
 93
       11
 72
     1
 10
1947.049793082625
 20
-2670.723716823176
 11
1950.949195200907
 21
-2674.507124154921
 72
     1
 10
1950.949195200907
 20
-2674.507124154921
 11
1921.054749561539
 21
-2693.42334071426
 72
     1
 10
1921.054749561539
 20
-2693.42334071426
 11
1931.452765480563
 21
-2695.945521949442
 72
     1
 10
1931.452765480563
 20
-2695.945521949442
 11
1906.185415589322
 21
-2709.489856536944
 72
     1
 10
1906.185415589322
 20
-2709.489856536944
 11
1908.057224077463
 21
-2712.339828231557
 72
     1
 10
1908.057224077463
 20
-2712.339828231557
 11
1898.828777083138
 21
-2712.213648540087
 72
     1
 10
1898.828777083138
 20
-2712.213648540087
 11
1902.961976067443
 21
-2704.369792032132
 72
     1
 10
1902.961976067443
 20
-2704.369792032132
 11
1904.833784555584
 21
-2707.118815638245
 72
     1
 10
1904.833784555584
 20
-2707.118815638245
 11
1923.654251679525
 21
-2697.206740820455
 72
     1
 10
1923.654251679525
 20
-2697.206740820455
 11
1911.95634320729
 21
-2694.684563198045
 72
     1
 10
1911.95634320729
 20
-2694.684563198045
 11
1947.049793082625
 21
-2670.723716823176
 97
        0
 75
     0
 76
     1
 98
        0
  0
INSERT
  5
6F
330
54
100
AcDbEntity
  8
CARTIGLIO
100
AcDbBlockReference
  2
BLOCK_4
 10
0.0
 20
0.0
 30
0.0
  0
ENDBLK
  5
57
330
54
100
AcDbEntity
  8
0
100
AcDbBlockEnd
  0
BLOCK
  5
70
330
6E
100
AcDbEntity
  8
0
100
AcDbBlockBegin
  2
BLOCK_4
 70
     0
 10
0.0
 20
0.0
 30
0.0
  3
BLOCK_4
  1

  0
SPLINE
  5
72
330
6E
100
AcDbEntity
  8
CARTIGLIO
 62
   250
100
AcDbSpline
210
0.0
220
0.0
230
1.0
 70
    11
 71
     3
 72
    41
 73
    37
 74
     0
 42
0.0000000001
 43
0.0000000001
 12
1.0
 22
0.0
 32
0.0
 13
1.0
 23
0.0
 33
0.0
 40
0.0
 40
0.0
 40
0.0
 40
0.0
 40
1.0
 40
1.0
 40
1.0
 40
2.0
 40
2.0
 40
2.0
 40
3.0
 40
3.0
 40
3.0
 40
4.0
 40
4.0
 40
4.0
 40
5.0
 40
5.0
 40
5.0
 40
6.0
 40
6.0
 40
6.0
 40
7.0
 40
7.0
 40
7.0
 40
8.0
 40
8.0
 40
8.0
 40
9.0
 40
9.0
 40
9.0
 40
10.0
 40
10.0
 40
10.0
 40
11.0
 40
11.0
 40
11.0
 40
12.0
 40
12.0
 40
12.0
 40
12.0
 10
1882.527506100374
 20
-2801.288870255219
 30
0.0
 10
1882.527506100374
 20
-2801.288870255219
 30
0.0
 10
1893.982204617076
 20
-2801.273568045164
 30
0.0
 10
1893.982204617076
 20
-2801.273568045164
 30
0.0
 10
1893.982204617076
 20
-2801.273568045164
 30
0.0
 10
1892.087153840678
 20
-2810.082540904322
 30
0.0
 10
1892.087153840678
 20
-2810.082540904322
 30
0.0
 10
1892.087153840678
 20
-2810.082540904322
 30
0.0
 10
1863.961868214322
 20
-2810.082540904322
 30
0.0
 10
1863.961868214322
 20
-2810.082540904322
 30
0.0
 10
1863.961868214322
 20
-2810.082540904322
 30
0.0
 10
1865.564457874209
 20
-2802.585262740359
 30
0.0
 10
1865.564457874209
 20
-2802.585262740359
 30
0.0
 10
1865.564457874209
 20
-2802.585262740359
 30
0.0
 10
1881.111128775308
 20
-2784.895638772927
 30
0.0
 10
1881.111128775308
 20
-2784.895638772927
 30
0.0
 10
1881.111128775308
 20
-2784.895638772927
 30
0.0
 10
1868.403576739122
 20
-2784.895638772927
 30
0.0
 10
1868.403576739122
 20
-2784.895638772927
 30
0.0
 10
1868.403576739122
 20
-2784.895638772927
 30
0.0
 10
1870.287837649965
 20
-2776.081028494571
 30
0.0
 10
1870.287837649965
 20
-2776.081028494571
 30
0.0
 10
1870.287837649965
 20
-2776.081028494571
 30
0.0
 10
1896.687958658518
 20
-2776.081028494571
 30
0.0
 10
1896.687958658518
 20
-2776.081028494571
 30
0.0
 10
1896.687958658518
 20
-2776.081028494571
 30
0.0
 10
1895.209326317895
 20
-2783.547433372655
 30
0.0
 10
1895.209326317895
 20
-2783.547433372655
 30
0.0
 10
1895.209326317895
 20
-2783.547433372655
 30
0.0
 10
1879.533994461803
 20
-2801.310078582667
 30
0.0
 10
1879.533994461803
 20
-2801.310078582667
 30
0.0
 10
1880.532016067072
 20
-2801.305783223763
 30
0.0
 10
1881.530314493702
 20
-2801.297460969512
 30
0.0
 10
1882.527506100374
 20
-2801.288870255219
 30
0.0
 10
1882.527506100374
 20
-2801.288870255219
 30
0.0
 10
1882.527506100374
 20
-2801.288870255219
 30
0.0
 10
1882.527506100374
 20
-2801.288870255219
 30
0.0
  0
POLYLINE
  5
73
330
6E
100
AcDbEntity
  8
CARTIGLIO
 62
   250
100
AcDb2dPolyline
 66
     1
 10
0.0
 20
0.0
 30
0.0
  0
VERTEX
  5
74
330
73
100
AcDbEntity
  8
CARTIGLIO
 62
   250
100
AcDbVertex
100
AcDb2dVertex
 10
1903.41346868916
 20
-2776.081028494571
 30
0.0
  0
VERTEX
  5
75
330
73
100
AcDbEntity
  8
CARTIGLIO
 62
   250
100
AcDbVertex
100
AcDb2dVertex
 10
1930.488991902502
 20
-2776.081028494571
 30
0.0
  0
VERTEX
  5
76
330
73
100
AcDbEntity
  8
CARTIGLIO
 62
   250
100
AcDbVertex
100
AcDb2dVertex
 10
1928.595047015168
 20
-2784.895638772927
 30
0.0
  0
VERTEX
  5
77
330
73
100
AcDbEntity
  8
CARTIGLIO
 62
   250
100
AcDbVertex
100
AcDb2dVertex
 10
1911.900109866431
 20
-2784.895638772927
 30
0.0
  0
VERTEX
  5
78
330
73
100
AcDbEntity
  8
CARTIGLIO
 62
   250
100
AcDbVertex
100
AcDb2dVertex
 10
1911.223879175722
 20
-2788.004672446596
 30
0.0
  0
VERTEX
  5
79
330
73
100
AcDbEntity
  8
CARTIGLIO
 62
   250
100
AcDbVertex
100
AcDb2dVertex
 10
1927.359899240608
 20
-2788.004672446596
 30
0.0
  0
VERTEX
  5
7A
330
73
100
AcDbEntity
  8
CARTIGLIO
 62
   250
100
AcDbVertex
100
AcDb2dVertex
 10
1925.465954353275
 20
-2796.819282724965
 30
0.0
  0
VERTEX
  5
7B
330
73
100
AcDbEntity
  8
CARTIGLIO
 62
   250
100
AcDbVertex
100
AcDb2dVertex
 10
1909.294795314613
 20
-2796.819282724965
 30
0.0
  0
VERTEX
  5
7C
330
73
100
AcDbEntity
  8
CARTIGLIO
 62
   250
100
AcDbVertex
100
AcDb2dVertex
 10
1908.233134354319
 20
-2801.273568045164
 30
0.0
  0
VERTEX
  5
7D
330
73
100
AcDbEntity
  8
CARTIGLIO
 62
   250
100
AcDbVertex
100
AcDb2dVertex
 10
1926.329504780564
 20
-2801.273568045164
 30
0.0
  0
VERTEX
  5
7E
330
73
100
AcDbEntity
  8
CARTIGLIO
 62
   250
100
AcDbVertex
100
AcDb2dVertex
 10
1924.395442556851
 20
-2810.082540904322
 30
0.0
  0
VERTEX
  5
7F
330
73
100
AcDbEntity
  8
CARTIGLIO
 62
   250
100
AcDbVertex
100
AcDb2dVertex
 10
1896.104142314547
 20
-2810.082540904322
 30
0.0
  0
VERTEX
  5
80
330
73
100
AcDbEntity
  8
CARTIGLIO
 62
   250
100
AcDbVertex
100
AcDb2dVertex
 10
1903.41346868916
 20
-2776.081028494571
 30
0.0
  0
VERTEX
  5
81
330
73
100
AcDbEntity
  8
CARTIGLIO
 62
   250
100
AcDbVertex
100
AcDb2dVertex
 10
1903.41346868916
 20
-2776.081028494571
 30
0.0
  0
SEQEND
  5
82
330
73
100
AcDbEntity
  8
CARTIGLIO
 62
   250
  0
POLYLINE
  5
83
330
6E
100
AcDbEntity
  8
CARTIGLIO
 62
   250
100
AcDb2dPolyline
 66
     1
 10
0.0
 20
0.0
 30
0.0
  0
VERTEX
  5
84
330
83
100
AcDbEntity
  8
CARTIGLIO
 62
   250
100
AcDbVertex
100
AcDb2dVertex
 10
1950.009207546819
 20
-2810.082540904322
 30
0.0
  0
VERTEX
  5
85
330
83
100
AcDbEntity
  8
CARTIGLIO
 62
   250
100
AcDbVertex
100
AcDb2dVertex
 10
1943.484852967676
 20
-2794.337908206476
 30
0.0
  0
VERTEX
  5
86
330
83
100
AcDbEntity
  8
CARTIGLIO
 62
   250
100
AcDbVertex
100
AcDb2dVertex
 10
1940.086820742428
 20
-2810.082540904322
 30
0.0
  0
VERTEX
  5
87
330
83
100
AcDbEntity
  8
CARTIGLIO
 62
   250
100
AcDbVertex
100
AcDb2dVertex
 10
1930.155579378371
 20
-2810.082540904322
 30
0.0
  0
VERTEX
  5
88
330
83
100
AcDbEntity
  8
CARTIGLIO
 62
   250
100
AcDbVertex
100
AcDb2dVertex
 10
1937.470990935551
 20
-2776.081028494571
 30
0.0
  0
VERTEX
  5
89
330
83
100
AcDbEntity
  8
CARTIGLIO
 62
   250
100
AcDbVertex
100
AcDb2dVertex
 10
1946.348871092684
 20
-2776.081028494571
 30
0.0
  0
VERTEX
  5
8A
330
83
100
AcDbEntity
  8
CARTIGLIO
 62
   250
100
AcDbVertex
100
AcDb2dVertex
 10
1952.891765138877
 20
-2791.770089977797
 30
0.0
  0
VERTEX
  5
8B
330
83
100
AcDbEntity
  8
CARTIGLIO
 62
   250
100
AcDbVertex
100
AcDb2dVertex
 10
1956.273201580897
 20
-2776.081028494571
 30
0.0
  0
VERTEX
  5
8C
330
83
100
AcDbEntity
  8
CARTIGLIO
 62
   250
100
AcDbVertex
100
AcDb2dVertex
 10
1966.182302822257
 20
-2776.081028494571
 30
0.0
  0
VERTEX
  5
8D
330
83
100
AcDbEntity
  8
CARTIGLIO
 62
   250
100
AcDbVertex
100
AcDb2dVertex
 10
1958.866894988593
 20
-2810.082540904322
 30
0.0
  0
VERTEX
  5
8E
330
83
100
AcDbEntity
  8
CARTIGLIO
 62
   250
100
AcDbVertex
100
AcDb2dVertex
 10
1950.009207546819
 20
-2810.082540904322
 30
0.0
  0
VERTEX
  5
8F
330
83
100
AcDbEntity
  8
CARTIGLIO
 62
   250
100
AcDbVertex
100
AcDb2dVertex
 10
1950.009207546819
 20
-2810.082540904322
 30
0.0
  0
SEQEND
  5
90
330
83
100
AcDbEntity
  8
CARTIGLIO
 62
   250
  0
POLYLINE
  5
91
330
6E
100
AcDbEntity
  8
CARTIGLIO
 62
   250
100
AcDb2dPolyline
 66
     1
 10
0.0
 20
0.0
 30
0.0
  0
VERTEX
  5
92
330
91
100
AcDbEntity
  8
CARTIGLIO
 62
   250
100
AcDbVertex
100
AcDb2dVertex
 10
1973.340004171261
 20
-2776.081028494571
 30
0.0
  0
VERTEX
  5
93
330
91
100
AcDbEntity
  8
CARTIGLIO
 62
   250
100
AcDbVertex
100
AcDb2dVertex
 10
1983.69569097574
 20
-2776.081028494571
 30
0.0
  0
VERTEX
  5
94
330
91
100
AcDbEntity
  8
CARTIGLIO
 62
   250
100
AcDbVertex
100
AcDb2dVertex
 10
1976.380275695018
 20
-2810.082540904322
 30
0.0
  0
VERTEX
  5
95
330
91
100
AcDbEntity
  8
CARTIGLIO
 62
   250
100
AcDbVertex
100
AcDb2dVertex
 10
1966.005502064277
 20
-2810.082540904322
 30
0.0
  0
VERTEX
  5
96
330
91
100
AcDbEntity
  8
CARTIGLIO
 62
   250
100
AcDbVertex
100
AcDb2dVertex
 10
1973.340004171261
 20
-2776.081028494571
 30
0.0
  0
VERTEX
  5
97
330
91
100
AcDbEntity
  8
CARTIGLIO
 62
   250
100
AcDbVertex
100
AcDb2dVertex
 10
1973.340004171261
 20
-2776.081028494571
 30
0.0
  0
SEQEND
  5
98
330
91
100
AcDbEntity
  8
CARTIGLIO
 62
   250
  0
POLYLINE
  5
99
330
6E
100
AcDbEntity
  8
CARTIGLIO
 62
   250
100
AcDb2dPolyline
 66
     1
 10
0.0
 20
0.0
 30
0.0
  0
VERTEX
  5
9A
330
99
100
AcDbEntity
  8
CARTIGLIO
 62
   250
100
AcDbVertex
100
AcDb2dVertex
 10
1990.358393395401
 20
-2810.082540904322
 30
0.0
  0
VERTEX
  5
9B
330
99
100
AcDbEntity
  8
CARTIGLIO
 62
   250
100
AcDbVertex
100
AcDb2dVertex
 10
1995.801445381666
 20
-2784.895638772927
 30
0.0
  0
VERTEX
  5
9C
330
99
100
AcDbEntity
  8
CARTIGLIO
 62
   250
100
AcDbVertex
100
AcDb2dVertex
 10
1986.660702465801
 20
-2784.895638772927
 30
0.0
  0
VERTEX
  5
9D
330
99
100
AcDbEntity
  8
CARTIGLIO
 62
   250
100
AcDbVertex
100
AcDb2dVertex
 10
1988.554647353141
 20
-2776.081028494571
 30
0.0
  0
VERTEX
  5
9E
330
99
100
AcDbEntity
  8
CARTIGLIO
 62
   250
100
AcDbVertex
100
AcDb2dVertex
 10
2017.073113781412
 20
-2776.081028494571
 30
0.0
  0
VERTEX
  5
9F
330
99
100
AcDbEntity
  8
CARTIGLIO
 62
   250
100
AcDbVertex
100
AcDb2dVertex
 10
2015.179161447033
 20
-2784.895638772927
 30
0.0
  0
VERTEX
  5
A0
330
99
100
AcDbEntity
  8
CARTIGLIO
 62
   250
100
AcDbVertex
100
AcDb2dVertex
 10
2006.159895047079
 20
-2784.895638772927
 30
0.0
  0
VERTEX
  5
A1
330
99
100
AcDbEntity
  8
CARTIGLIO
 62
   250
100
AcDbVertex
100
AcDb2dVertex
 10
2000.739534266283
 20
-2810.082540904322
 30
0.0
  0
VERTEX
  5
A2
330
99
100
AcDbEntity
  8
CARTIGLIO
 62
   250
100
AcDbVertex
100
AcDb2dVertex
 10
1990.358393395401
 20
-2810.082540904322
 30
0.0
  0
VERTEX
  5
A3
330
99
100
AcDbEntity
  8
CARTIGLIO
 62
   250
100
AcDbVertex
100
AcDb2dVertex
 10
1990.358393395401
 20
-2810.082540904322
 30
0.0
  0
SEQEND
  5
A4
330
99
100
AcDbEntity
  8
CARTIGLIO
 62
   250
  0
INSERT
  5
A6
330
6E
100
AcDbEntity
  8
CARTIGLIO
100
AcDbBlockReference
  2
BLOCK_5
 10
0.0
 20
0.0
 30
0.0
  0
ENDBLK
  5
71
330
6E
100
AcDbEntity
  8
0
100
AcDbBlockEnd
  0
BLOCK
  5
A7
330
A5
100
AcDbEntity
  8
0
100
AcDbBlockBegin
  2
BLOCK_5
 70
     0
 10
0.0
 20
0.0
 30
0.0
  3
BLOCK_5
  1

  0
SPLINE
  5
A9
330
A5
100
AcDbEntity
  8
CARTIGLIO
 62
   250
100
AcDbSpline
210
0.0
220
0.0
230
1.0
 70
    11
 71
     3
 72
    41
 73
    37
 74
     0
 42
0.0000000001
 43
0.0000000001
 12
1.0
 22
0.0
 32
0.0
 13
1.0
 23
0.0
 33
0.0
 40
0.0
 40
0.0
 40
0.0
 40
0.0
 40
1.0
 40
1.0
 40
1.0
 40
2.0
 40
2.0
 40
2.0
 40
3.0
 40
3.0
 40
3.0
 40
4.0
 40
4.0
 40
4.0
 40
5.0
 40
5.0
 40
5.0
 40
6.0
 40
6.0
 40
6.0
 40
7.0
 40
7.0
 40
7.0
 40
8.0
 40
8.0
 40
8.0
 40
9.0
 40
9.0
 40
9.0
 40
10.0
 40
10.0
 40
10.0
 40
11.0
 40
11.0
 40
11.0
 40
12.0
 40
12.0
 40
12.0
 40
12.0
 10
1866.341044513623
 20
-2808.203587735983
 30
0.0
 10
1866.341044513623
 20
-2808.203587735983
 30
0.0
 10
1867.36249139868
 20
-2803.436835605701
 30
0.0
 10
1867.36249139868
 20
-2803.436835605701
 30
0.0
 10
1867.36249139868
 20
-2803.436835605701
 30
0.0
 10
1885.307582849307
 20
-2783.010688743012
 30
0.0
 10
1885.307582849307
 20
-2783.010688743012
 30
0.0
 10
1885.307582849307
 20
-2783.010688743012
 30
0.0
 10
1870.784059379771
 20
-2783.010688743012
 30
0.0
 10
1870.784059379771
 20
-2783.010688743012
 30
0.0
 10
1870.784059379771
 20
-2783.010688743012
 30
0.0
 10
1871.869695549962
 20
-2777.956480248901
 30
0.0
 10
1871.869695549962
 20
-2777.956480248901
 30
0.0
 10
1871.869695549962
 20
-2777.956480248901
 30
0.0
 10
1894.347108698233
 20
-2777.956480248901
 30
0.0
 10
1894.347108698233
 20
-2777.956480248901
 30
0.0
 10
1894.347108698233
 20
-2777.956480248901
 30
0.0
 10
1893.409386967689
 20
-2782.700905671306
 30
0.0
 10
1893.409386967689
 20
-2782.700905671306
 30
0.0
 10
1893.409386967689
 20
-2782.700905671306
 30
0.0
 10
1875.271727661681
 20
-2803.252640265776
 30
0.0
 10
1875.271727661681
 20
-2803.252640265776
 30
0.0
 10
1877.200197053961
 20
-2803.21077768852
 30
0.0
 10
1878.313741608986
 20
-2803.191241819135
 30
0.0
 10
1878.609570488259
 20
-2803.191241819135
 30
0.0
 10
1879.97149966835
 20
-2803.191241819135
 30
0.0
 10
1881.849733967911
 20
-2803.17728762672
 30
0.0
 10
1884.244273386994
 20
-2803.149379241878
 30
0.0
 10
1884.244273386994
 20
-2803.149379241878
 30
0.0
 10
1891.603714468679
 20
-2803.149379241878
 30
0.0
 10
1891.603714468679
 20
-2803.149379241878
 30
0.0
 10
1891.603714468679
 20
-2803.149379241878
 30
0.0
 10
1890.518078298508
 20
-2808.203587735983
 30
0.0
 10
1890.518078298508
 20
-2808.203587735983
 30
0.0
 10
1890.518078298508
 20
-2808.203587735983
 30
0.0
 10
1866.341044513623
 20
-2808.203587735983
 30
0.0
 10
1866.341044513623
 20
-2808.203587735983
 30
0.0
  0
HATCH
  5
AA
330
A5
100
AcDbEntity
  8
CARTIGLIO
 62
   250
100
AcDbHatch
 10
0.0
 20
0.0
 30
0.0
210
0.0
220
0.0
230
1.0
  2
SOLID
 70
     1
 71
     0
 91
        1
 92
        1
 93
        1
 72
     4
 94
        3
 73
     0
 74
     1
 95
       41
 96
       37
 40
0.0
 40
0.0
 40
0.0
 40
0.0
 40
1.0
 40
1.0
 40
1.0
 40
2.0
 40
2.0
 40
2.0
 40
3.0
 40
3.0
 40
3.0
 40
4.0
 40
4.0
 40
4.0
 40
5.0
 40
5.0
 40
5.0
 40
6.0
 40
6.0
 40
6.0
 40
7.0
 40
7.0
 40
7.0
 40
8.0
 40
8.0
 40
8.0
 40
9.0
 40
9.0
 40
9.0
 40
10.0
 40
10.0
 40
10.0
 40
11.0
 40
11.0
 40
11.0
 40
12.0
 40
12.0
 40
12.0
 40
12.0
 10
1866.341044513623
 20
-2808.203587735983
 10
1866.341044513623
 20
-2808.203587735983
 10
1867.36249139868
 20
-2803.436835605701
 10
1867.36249139868
 20
-2803.436835605701
 10
1867.36249139868
 20
-2803.436835605701
 10
1885.307582849307
 20
-2783.010688743012
 10
1885.307582849307
 20
-2783.010688743012
 10
1885.307582849307
 20
-2783.010688743012
 10
1870.784059379771
 20
-2783.010688743012
 10
1870.784059379771
 20
-2783.010688743012
 10
1870.784059379771
 20
-2783.010688743012
 10
1871.869695549962
 20
-2777.956480248901
 10
1871.869695549962
 20
-2777.956480248901
 10
1871.869695549962
 20
-2777.956480248901
 10
1894.347108698233
 20
-2777.956480248901
 10
1894.347108698233
 20
-2777.956480248901
 10
1894.347108698233
 20
-2777.956480248901
 10
1893.409386967689
 20
-2782.700905671306
 10
1893.409386967689
 20
-2782.700905671306
 10
1893.409386967689
 20
-2782.700905671306
 10
1875.271727661681
 20
-2803.252640265776
 10
1875.271727661681
 20
-2803.252640265776
 10
1877.200197053961
 20
-2803.21077768852
 10
1878.313741608986
 20
-2803.191241819135
 10
1878.609570488259
 20
-2803.191241819135
 10
1879.97149966835
 20
-2803.191241819135
 10
1881.849733967911
 20
-2803.17728762672
 10
1884.244273386994
 20
-2803.149379241878
 10
1884.244273386994
 20
-2803.149379241878
 10
1891.603714468679
 20
-2803.149379241878
 10
1891.603714468679
 20
-2803.149379241878
 10
1891.603714468679
 20
-2803.149379241878
 10
1890.518078298508
 20
-2808.203587735983
 10
1890.518078298508
 20
-2808.203587735983
 10
1890.518078298508
 20
-2808.203587735983
 10
1866.341044513623
 20
-2808.203587735983
 10
1866.341044513623
 20
-2808.203587735983
 97
        0
 75
     2
 76
     1
 98
        0
  0
POLYLINE
  5
AB
330
A5
100
AcDbEntity
  8
CARTIGLIO
 62
   250
100
AcDb2dPolyline
 66
     1
 10
0.0
 20
0.0
 30
0.0
  0
VERTEX
  5
AC
330
AB
100
AcDbEntity
  8
CARTIGLIO
 62
   250
100
AcDbVertex
100
AcDb2dVertex
 10
1898.340798568498
 20
-2808.203587735983
 30
0.0
  0
VERTEX
  5
AD
330
AB
100
AcDbEntity
  8
CARTIGLIO
 62
   250
100
AcDbVertex
100
AcDb2dVertex
 10
1904.846243074158
 20
-2777.956480248901
 30
0.0
  0
VERTEX
  5
AE
330
AB
100
AcDbEntity
  8
CARTIGLIO
 62
   250
100
AcDbVertex
100
AcDb2dVertex
 10
1927.962758235215
 20
-2777.956480248901
 30
0.0
  0
VERTEX
  5
AF
330
AB
100
AcDbEntity
  8
CARTIGLIO
 62
   250
100
AcDbVertex
100
AcDb2dVertex
 10
1926.877122065025
 20
-2783.010688743012
 30
0.0
  0
VERTEX
  5
B0
330
AB
100
AcDbEntity
  8
CARTIGLIO
 62
   250
100
AcDbVertex
100
AcDb2dVertex
 10
1910.185117093613
 20
-2783.010688743012
 30
0.0
  0
VERTEX
  5
B1
330
AB
100
AcDbEntity
  8
CARTIGLIO
 62
   250
100
AcDbVertex
100
AcDb2dVertex
 10
1908.694809343281
 20
-2789.881733090043
 30
0.0
  0
VERTEX
  5
B2
330
AB
100
AcDbEntity
  8
CARTIGLIO
 62
   250
100
AcDbVertex
100
AcDb2dVertex
 10
1924.837019133397
 20
-2789.881733090043
 30
0.0
  0
VERTEX
  5
B3
330
AB
100
AcDbEntity
  8
CARTIGLIO
 62
   250
100
AcDbVertex
100
AcDb2dVertex
 10
1923.751382963206
 20
-2794.935941584148
 30
0.0
  0
VERTEX
  5
B4
330
AB
100
AcDbEntity
  8
CARTIGLIO
 62
   250
100
AcDbVertex
100
AcDb2dVertex
 10
1907.611964011583
 20
-2794.935941584148
 30
0.0
  0
VERTEX
  5
B5
330
AB
100
AcDbEntity
  8
CARTIGLIO
 62
   250
100
AcDbVertex
100
AcDb2dVertex
 10
1905.655586234454
 20
-2803.149379241878
 30
0.0
  0
VERTEX
  5
B6
330
AB
100
AcDbEntity
  8
CARTIGLIO
 62
   250
100
AcDbVertex
100
AcDb2dVertex
 10
1923.793245540463
 20
-2803.149379241878
 30
0.0
  0
VERTEX
  5
B7
330
AB
100
AcDbEntity
  8
CARTIGLIO
 62
   250
100
AcDbVertex
100
AcDb2dVertex
 10
1922.688073500893
 20
-2808.203587735983
 30
0.0
  0
VERTEX
  5
B8
330
AB
100
AcDbEntity
  8
CARTIGLIO
 62
   250
100
AcDbVertex
100
AcDb2dVertex
 10
1898.340798568498
 20
-2808.203587735983
 30
0.0
  0
SEQEND
  5
B9
330
AB
100
AcDbEntity
  8
CARTIGLIO
 62
   250
  0
HATCH
  5
BA
330
A5
100
AcDbEntity
  8
CARTIGLIO
 62
   250
100
AcDbHatch
 10
0.0
 20
0.0
 30
0.0
210
0.0
220
0.0
230
1.0
  2
SOLID
 70
     1
 71
     0
 91
        1
 92
        1
 93
       12
 72
     1
 10
1898.340798568498
 20
-2808.203587735983
 11
1904.846243074158
 21
-2777.956480248901
 72
     1
 10
1904.846243074158
 20
-2777.956480248901
 11
1927.962758235215
 21
-2777.956480248901
 72
     1
 10
1927.962758235215
 20
-2777.956480248901
 11
1926.877122065025
 21
-2783.010688743012
 72
     1
 10
1926.877122065025
 20
-2783.010688743012
 11
1910.185117093613
 21
-2783.010688743012
 72
     1
 10
1910.185117093613
 20
-2783.010688743012
 11
1908.694809343281
 21
-2789.881733090043
 72
     1
 10
1908.694809343281
 20
-2789.881733090043
 11
1924.837019133397
 21
-2789.881733090043
 72
     1
 10
1924.837019133397
 20
-2789.881733090043
 11
1923.751382963206
 21
-2794.935941584148
 72
     1
 10
1923.751382963206
 20
-2794.935941584148
 11
1907.611964011583
 21
-2794.935941584148
 72
     1
 10
1907.611964011583
 20
-2794.935941584148
 11
1905.655586234454
 21
-2803.149379241878
 72
     1
 10
1905.655586234454
 20
-2803.149379241878
 11
1923.793245540463
 21
-2803.149379241878
 72
     1
 10
1923.793245540463
 20
-2803.149379241878
 11
1922.688073500893
 21
-2808.203587735983
 72
     1
 10
1922.688073500893
 20
-2808.203587735983
 11
1898.340798568498
 21
-2808.203587735983
 97
        0
 75
     2
 76
     1
 98
        0
  0
POLYLINE
  5
BB
330
A5
100
AcDbEntity
  8
CARTIGLIO
 62
   250
100
AcDb2dPolyline
 66
     1
 10
0.0
 20
0.0
 30
0.0
  0
VERTEX
  5
BC
330
BB
100
AcDbEntity
  8
CARTIGLIO
 62
   250
100
AcDbVertex
100
AcDb2dVertex
 10
1957.007014335782
 20
-2808.203587735983
 30
0.0
  0
VERTEX
  5
BD
330
BB
100
AcDbEntity
  8
CARTIGLIO
 62
   250
100
AcDbVertex
100
AcDb2dVertex
 10
1951.031829142032
 20
-2808.203587735983
 30
0.0
  0
VERTEX
  5
BE
330
BB
100
AcDbEntity
  8
CARTIGLIO
 62
   250
100
AcDbVertex
100
AcDb2dVertex
 10
1942.609078598034
 20
-2787.880701897192
 30
0.0
  0
VERTEX
  5
BF
330
BB
100
AcDbEntity
  8
CARTIGLIO
 62
   250
100
AcDbVertex
100
AcDb2dVertex
 10
1938.230253017
 20
-2808.203587735983
 30
0.0
  0
VERTEX
  5
C0
330
BB
100
AcDbEntity
  8
CARTIGLIO
 62
   250
100
AcDbVertex
100
AcDb2dVertex
 10
1932.255067823257
 20
-2808.203587735983
 30
0.0
  0
VERTEX
  5
C1
330
BB
100
AcDbEntity
  8
CARTIGLIO
 62
   250
100
AcDbVertex
100
AcDb2dVertex
 10
1938.760512328911
 20
-2777.956480248901
 30
0.0
  0
VERTEX
  5
C2
330
BB
100
AcDbEntity
  8
CARTIGLIO
 62
   250
100
AcDbVertex
100
AcDb2dVertex
 10
1944.758024230531
 20
-2777.956480248901
 30
0.0
  0
VERTEX
  5
C3
330
BB
100
AcDbEntity
  8
CARTIGLIO
 62
   250
100
AcDbVertex
100
AcDb2dVertex
 10
1953.200310643934
 20
-2798.195640933192
 30
0.0
  0
VERTEX
  5
C4
330
BB
100
AcDbEntity
  8
CARTIGLIO
 62
   250
100
AcDbVertex
100
AcDb2dVertex
 10
1957.55960035557
 20
-2777.956480248901
 30
0.0
  0
VERTEX
  5
C5
330
BB
100
AcDbEntity
  8
CARTIGLIO
 62
   250
100
AcDbVertex
100
AcDb2dVertex
 10
1963.512458841454
 20
-2777.956480248901
 30
0.0
  0
VERTEX
  5
C6
330
BB
100
AcDbEntity
  8
CARTIGLIO
 62
   250
100
AcDbVertex
100
AcDb2dVertex
 10
1957.007014335782
 20
-2808.203587735983
 30
0.0
  0
SEQEND
  5
C7
330
BB
100
AcDbEntity
  8
CARTIGLIO
 62
   250
  0
HATCH
  5
C8
330
A5
100
AcDbEntity
  8
CARTIGLIO
 62
   250
100
AcDbHatch
 10
0.0
 20
0.0
 30
0.0
210
0.0
220
0.0
230
1.0
  2
SOLID
 70
     1
 71
     0
 91
        1
 92
        1
 93
       10
 72
     1
 10
1957.007014335782
 20
-2808.203587735983
 11
1951.031829142032
 21
-2808.203587735983
 72
     1
 10
1951.031829142032
 20
-2808.203587735983
 11
1942.609078598034
 21
-2787.880701897192
 72
     1
 10
1942.609078598034
 20
-2787.880701897192
 11
1938.230253017
 21
-2808.203587735983
 72
     1
 10
1938.230253017
 20
-2808.203587735983
 11
1932.255067823257
 21
-2808.203587735983
 72
     1
 10
1932.255067823257
 20
-2808.203587735983
 11
1938.760512328911
 21
-2777.956480248901
 72
     1
 10
1938.760512328911
 20
-2777.956480248901
 11
1944.758024230531
 21
-2777.956480248901
 72
     1
 10
1944.758024230531
 20
-2777.956480248901
 11
1953.200310643934
 21
-2798.195640933192
 72
     1
 10
1953.200310643934
 20
-2798.195640933192
 11
1957.55960035557
 21
-2777.956480248901
 72
     1
 10
1957.55960035557
 20
-2777.956480248901
 11
1963.512458841454
 21
-2777.956480248901
 72
     1
 10
1963.512458841454
 20
-2777.956480248901
 11
1957.007014335782
 21
-2808.203587735983
 97
        0
 75
     2
 76
     1
 98
        0
  0
POLYLINE
  5
C9
330
A5
100
AcDbEntity
  8
CARTIGLIO
 62
   250
100
AcDb2dPolyline
 66
     1
 10
0.0
 20
0.0
 30
0.0
  0
VERTEX
  5
CA
330
C9
100
AcDbEntity
  8
CARTIGLIO
 62
   250
100
AcDbVertex
100
AcDb2dVertex
 10
1967.955473707603
 20
-2808.203587735983
 30
0.0
  0
VERTEX
  5
CB
330
C9
100
AcDbEntity
  8
CARTIGLIO
 62
   250
100
AcDbVertex
100
AcDb2dVertex
 10
1974.48324492114
 20
-2777.956480248901
 30
0.0
  0
VERTEX
  5
CC
330
C9
100
AcDbEntity
  8
CARTIGLIO
 62
   250
100
AcDbVertex
100
AcDb2dVertex
 10
1980.88263756441
 20
-2777.956480248901
 30
0.0
  0
VERTEX
  5
CD
330
C9
100
AcDbEntity
  8
CARTIGLIO
 62
   250
100
AcDbVertex
100
AcDb2dVertex
 10
1974.37719305875
 20
-2808.203587735983
 30
0.0
  0
VERTEX
  5
CE
330
C9
100
AcDbEntity
  8
CARTIGLIO
 62
   250
100
AcDbVertex
100
AcDb2dVertex
 10
1967.955473707603
 20
-2808.203587735983
 30
0.0
  0
SEQEND
  5
CF
330
C9
100
AcDbEntity
  8
CARTIGLIO
 62
   250
  0
HATCH
  5
D0
330
A5
100
AcDbEntity
  8
CARTIGLIO
 62
   250
100
AcDbHatch
 10
0.0
 20
0.0
 30
0.0
210
0.0
220
0.0
230
1.0
  2
SOLID
 70
     1
 71
     0
 91
        1
 92
        1
 93
        4
 72
     1
 10
1967.955473707603
 20
-2808.203587735983
 11
1974.48324492114
 21
-2777.956480248901
 72
     1
 10
1974.48324492114
 20
-2777.956480248901
 11
1980.88263756441
 21
-2777.956480248901
 72
     1
 10
1980.88263756441
 20
-2777.956480248901
 11
1974.37719305875
 21
-2808.203587735983
 72
     1
 10
1974.37719305875
 20
-2808.203587735983
 11
1967.955473707603
 21
-2808.203587735983
 97
        0
 75
     2
 76
     1
 98
        0
  0
POLYLINE
  5
D1
330
A5
100
AcDbEntity
  8
CARTIGLIO
 62
   250
100
AcDb2dPolyline
 66
     1
 10
0.0
 20
0.0
 30
0.0
  0
VERTEX
  5
D2
330
D1
100
AcDbEntity
  8
CARTIGLIO
 62
   250
100
AcDbVertex
100
AcDb2dVertex
 10
1998.593298582412
 20
-2808.203587735983
 30
0.0
  0
VERTEX
  5
D3
330
D1
100
AcDbEntity
  8
CARTIGLIO
 62
   250
100
AcDbVertex
100
AcDb2dVertex
 10
1992.171579231252
 20
-2808.203587735983
 30
0.0
  0
VERTEX
  5
D4
330
D1
100
AcDbEntity
  8
CARTIGLIO
 62
   250
100
AcDbVertex
100
AcDb2dVertex
 10
1997.616505113097
 20
-2783.010688743012
 30
0.0
  0
VERTEX
  5
D5
330
D1
100
AcDbEntity
  8
CARTIGLIO
 62
   250
100
AcDbVertex
100
AcDb2dVertex
 10
1988.470927401781
 20
-2783.010688743012
 30
0.0
  0
VERTEX
  5
D6
330
D1
100
AcDbEntity
  8
CARTIGLIO
 62
   250
100
AcDbVertex
100
AcDb2dVertex
 10
1989.556563571965
 20
-2777.956480248901
 30
0.0
  0
VERTEX
  5
D7
330
D1
100
AcDbEntity
  8
CARTIGLIO
 62
   250
100
AcDbVertex
100
AcDb2dVertex
 10
2014.115942229127
 20
-2777.956480248901
 30
0.0
  0
VERTEX
  5
D8
330
D1
100
AcDbEntity
  8
CARTIGLIO
 62
   250
100
AcDbVertex
100
AcDb2dVertex
 10
2013.033096897416
 20
-2783.010688743012
 30
0.0
  0
VERTEX
  5
D9
330
D1
100
AcDbEntity
  8
CARTIGLIO
 62
   250
100
AcDbVertex
100
AcDb2dVertex
 10
2004.015897756367
 20
-2783.010688743012
 30
0.0
  0
VERTEX
  5
DA
330
D1
100
AcDbEntity
  8
CARTIGLIO
 62
   250
100
AcDbVertex
100
AcDb2dVertex
 10
1998.593298582412
 20
-2808.203587735983
 30
0.0
  0
SEQEND
  5
DB
330
D1
100
AcDbEntity
  8
CARTIGLIO
 62
   250
  0
HATCH
  5
DC
330
A5
100
AcDbEntity
  8
CARTIGLIO
 62
   250
100
AcDbHatch
 10
0.0
 20
0.0
 30
0.0
210
0.0
220
0.0
230
1.0
  2
SOLID
 70
     1
 71
     0
 91
        1
 92
        1
 93
        8
 72
     1
 10
1998.593298582412
 20
-2808.203587735983
 11
1992.171579231252
 21
-2808.203587735983
 72
     1
 10
1992.171579231252
 20
-2808.203587735983
 11
1997.616505113097
 21
-2783.010688743012
 72
     1
 10
1997.616505113097
 20
-2783.010688743012
 11
1988.470927401781
 21
-2783.010688743012
 72
     1
 10
1988.470927401781
 20
-2783.010688743012
 11
1989.556563571965
 21
-2777.956480248901
 72
     1
 10
1989.556563571965
 20
-2777.956480248901
 11
2014.115942229127
 21
-2777.956480248901
 72
     1
 10
2014.115942229127
 20
-2777.956480248901
 11
2013.033096897416
 21
-2783.010688743012
 72
     1
 10
2013.033096897416
 20
-2783.010688743012
 11
2004.015897756367
 21
-2783.010688743012
 72
     1
 10
2004.015897756367
 20
-2783.010688743012
 11
1998.593298582412
 21
-2808.203587735983
 97
        0
 75
     2
 76
     1
 98
        0
  0
ENDBLK
  5
A8
330
A5
100
AcDbEntity
  8
0
100
AcDbBlockEnd
  0
BLOCK
  5
115
330
113
100
AcDbEntity
  8
0
100
AcDbBlockBegin
  2
BLOCK_6
 70
     0
 10
0.0
 20
0.0
 30
0.0
  3
BLOCK_6
  1

  0
MTEXT
  5
117
330
113
100
AcDbEntity
  8
CARTIGLIO
 62
   250
100
AcDbMText
 10
41.39540607689073
 20
-2696.518788617252
 30
0.0
 40
17.48366666229575
 41
0.0
 71
     7
 72
     1
  1
\fArial|b0|i0|c0|p34;\W1;DGO 100/2/G50H A0CM5
  0
MTEXT
  5
118
330
113
100
AcDbEntity
  8
CARTIGLIO
 62
   250
100
AcDbMText
 10
41.39540607689073
 20
-2726.153499981371
 30
0.0
 40
17.48366666229575
 41
0.0
 71
     7
 72
     1
  1
\fArial|b0|i0|c0|p34;\W1;DGO 100/2/G50H A0CT5
  0
MTEXT
  5
119
330
113
100
AcDbEntity
  8
CARTIGLIO
 62
   250
100
AcDbMText
 10
41.39540607689073
 20
-2755.784766250005
 30
0.0
 40
17.48366666229575
 41
0.0
 71
     7
 72
     1
  1
\fArial|b0|i0|c0|p34;\W1;DGO 150/2/G50H A0CM5
  0
MTEXT
  5
11A
330
113
100
AcDbEntity
  8
CARTIGLIO
 62
   250
100
AcDbMText
 10
41.39540607689073
 20
-2785.419477614124
 30
0.0
 40
17.48366666229575
 41
0.0
 71
     7
 72
     1
  1
\fArial|b0|i0|c0|p34;\W1;DGO 150/2/G50H A0CT5
  0
MTEXT
  5
11B
330
113
100
AcDbEntity
  8
CARTIGLIO
 62
   250
100
AcDbMText
 10
41.39540607689073
 20
-2815.050743882758
 30
0.0
 40
17.48366666229575
 41
0.0
 71
     7
 72
     1
  1
\fArial|b0|i0|c0|p34;\W1;DGO 200/2/G50H A0CM5
  0
MTEXT
  5
11C
330
113
100
AcDbEntity
  8
CARTIGLIO
 62
   250
100
AcDbMText
 10
41.39540607689073
 20
-2844.685455246877
 30
0.0
 40
17.48366666229575
 41
0.0
 71
     7
 72
     1
  1
\fArial|b0|i0|c0|p34;\W1;DGO 200/2/G50H A0CT5
  0
MTEXT
  5
11D
330
113
100
AcDbEntity
  8
CARTIGLIO
 62
   250
100
AcDbMText
 10
41.39540607689073
 20
-2623.016788250767
 30
0.0
 40
17.48366666229575
 41
0.0
 71
     7
 72
     1
  1
\fArial|b0|i0|c0|p34;\W1;Tab.1: Pump type
  0
POLYLINE
  5
11E
330
113
100
AcDbEntity
  8
CARTIGLIO
 62
   250
100
AcDb2dPolyline
 66
     1
 10
0.0
 20
0.0
 30
0.0
  0
VERTEX
  5
11F
330
11E
100
AcDbEntity
  8
CARTIGLIO
 62
   250
100
AcDbVertex
100
AcDb2dVertex
 10
29.99999936883872
 20
-2633.081867289531
 30
0.0
  0
VERTEX
  5
120
330
11E
100
AcDbEntity
  8
CARTIGLIO
 62
   250
100
AcDbVertex
100
AcDb2dVertex
 10
716.1374558762335
 20
-2633.081867289531
 30
0.0
  0
VERTEX
  5
121
330
11E
100
AcDbEntity
  8
CARTIGLIO
 62
   250
100
AcDbVertex
100
AcDb2dVertex
 10
716.1374558762335
 20
-2939.999999264999
 30
0.0
  0
SEQEND
  5
122
330
11E
100
AcDbEntity
  8
CARTIGLIO
 62
   250
  0
POLYLINE
  5
123
330
113
100
AcDbEntity
  8
CARTIGLIO
 62
   250
100
AcDb2dPolyline
 66
     1
 10
0.0
 20
0.0
 30
0.0
  0
VERTEX
  5
124
330
123
100
AcDbEntity
  8
CARTIGLIO
 62
   250
100
AcDbVertex
100
AcDb2dVertex
 10
373.0687276071417
 20
-2939.999999264999
 30
0.0
  0
VERTEX
  5
125
330
123
100
AcDbEntity
  8
CARTIGLIO
 62
   250
100
AcDbVertex
100
AcDb2dVertex
 10
373.0687276239093
 20
-2633.081867289531
 30
0.0
  0
SEQEND
  5
126
330
123
100
AcDbEntity
  8
CARTIGLIO
 62
   250
  0
MTEXT
  5
127
330
113
100
AcDbEntity
  8
CARTIGLIO
 62
   250
100
AcDbMText
 10
384.4641510744027
 20
-2696.518788617252
 30
0.0
 40
17.48366666229575
 41
0.0
 71
     7
 72
     1
  1
\fArial|b0|i0|c0|p34;\W1;DGO 150/2/G50H A0CM6
  0
MTEXT
  5
128
330
113
100
AcDbEntity
  8
CARTIGLIO
 62
   250
100
AcDbMText
 10
384.4641510744027
 20
-2726.153499981371
 30
0.0
 40
17.48366666229575
 41
0.0
 71
     7
 72
     1
  1
\fArial|b0|i0|c0|p34;\W1;DGO 150/2/G50H A0CT6
  0
MTEXT
  5
129
330
113
100
AcDbEntity
  8
CARTIGLIO
 62
   250
100
AcDbMText
 10
384.4641510744027
 20
-2755.784766250005
 30
0.0
 40
17.48366666229575
 41
0.0
 71
     7
 72
     1
  1
\fArial|b0|i0|c0|p34;\W1;DGO 200/2/G50H A0CM6
  0
MTEXT
  5
12A
330
113
100
AcDbEntity
  8
CARTIGLIO
 62
   250
100
AcDbMText
 10
384.4641510744027
 20
-2785.419477614124
 30
0.0
 40
17.48366666229575
 41
0.0
 71
     7
 72
     1
  1
\fArial|b0|i0|c0|p34;\W1;DGO 200/2/G50H A0CT6
  0
POLYLINE
  5
12B
330
113
100
AcDbEntity
  8
CARTIGLIO
 62
   250
100
AcDb2dPolyline
 66
     1
 10
0.0
 20
0.0
 30
0.0
  0
VERTEX
  5
12C
330
12B
100
AcDbEntity
  8
CARTIGLIO
 62
   250
100
AcDbVertex
100
AcDb2dVertex
 10
29.99999936883872
 20
-2598.812076495151
 30
0.0
  0
VERTEX
  5
12D
330
12B
100
AcDbEntity
  8
CARTIGLIO
 62
   250
100
AcDbVertex
100
AcDb2dVertex
 10
716.1374558762335
 20
-2598.812076495151
 30
0.0
  0
VERTEX
  5
12E
330
12B
100
AcDbEntity
  8
CARTIGLIO
 62
   250
100
AcDbVertex
100
AcDb2dVertex
 10
716.1374558762335
 20
-2633.081867289531
 30
0.0
  0
SEQEND
  5
12F
330
12B
100
AcDbEntity
  8
CARTIGLIO
 62
   250
  0
POLYLINE
  5
130
330
113
100
AcDbEntity
  8
CARTIGLIO
 62
   250
100
AcDb2dPolyline
 66
     1
 10
0.0
 20
0.0
 30
0.0
  0
VERTEX
  5
131
330
130
100
AcDbEntity
  8
CARTIGLIO
 62
   250
100
AcDbVertex
100
AcDb2dVertex
 10
29.99999936883872
 20
-2664.160751640568
 30
0.0
  0
VERTEX
  5
132
330
130
100
AcDbEntity
  8
CARTIGLIO
 62
   250
100
AcDbVertex
100
AcDb2dVertex
 10
716.1374558762335
 20
-2664.160751640568
 30
0.0
  0
SEQEND
  5
133
330
130
100
AcDbEntity
  8
CARTIGLIO
 62
   250
  0
MTEXT
  5
134
330
113
100
AcDbEntity
  8
CARTIGLIO
 62
   250
100
AcDbMText
 10
169.279503674043
 20
-2657.889545253039
 30
0.0
 40
17.48366666229575
 41
0.0
 71
     7
 72
     1
  1
\fArial|b0|i0|c0|p34;\W1;50 Hz
  0
MTEXT
  5
135
330
113
100
AcDbEntity
  8
CARTIGLIO
 62
   250
100
AcDbMText
 10
512.3482486715549
 20
-2657.889545253039
 30
0.0
 40
17.48366666229575
 41
0.0
 71
     7
 72
     1
  1
\fArial|b0|i0|c0|p34;\W1;60 Hz
  0
ENDBLK
  5
116
330
113
100
AcDbEntity
  8
0
100
AcDbBlockEnd
  0
BLOCK
  5
142
330
140
100
AcDbEntity
  8
0
100
AcDbBlockBegin
  2
BLOCK_7
 70
     0
 10
0.0
 20
0.0
 30
0.0
  3
BLOCK_7
  1

  0
POLYLINE
  5
144
330
140
100
AcDbEntity
  8
PUMP_-_VISTA_LATO
 62
   250
100
AcDb2dPolyline
 66
     1
 10
0.0
 20
0.0
 30
0.0
  0
VERTEX
  5
145
330
144
100
AcDbEntity
  8
PUMP_-_VISTA_LATO
 62
   250
100
AcDbVertex
100
AcDb2dVertex
 10
1051.081890077761
 20
-754.0802148057405
 30
0.0
  0
VERTEX
  5
146
330
144
100
AcDbEntity
  8
PUMP_-_VISTA_LATO
 62
   250
100
AcDbVertex
100
AcDb2dVertex
 10
791.0818901427622
 20
-754.0802148057405
 30
0.0
  0
SEQEND
  5
147
330
144
100
AcDbEntity
  8
PUMP_-_VISTA_LATO
 62
   250
  0
ENDBLK
  5
143
330
140
100
AcDbEntity
  8
0
100
AcDbBlockEnd
  0
BLOCK
  5
14A
330
148
100
AcDbEntity
  8
0
100
AcDbBlockBegin
  2
BLOCK_8
 70
     0
 10
0.0
 20
0.0
 30
0.0
  3
BLOCK_8
  1

  0
POLYLINE
  5
14C
330
148
100
AcDbEntity
  8
PUMP_-_VISTA_LATO
100
AcDb2dPolyline
 66
     1
 10
0.0
 20
0.0
 30
0.0
  0
VERTEX
  5
14D
330
14C
100
AcDbEntity
  8
PUMP_-_VISTA_LATO
100
AcDbVertex
100
AcDb2dVertex
 10
1051.081890077761
 20
-754.0802148057405
 30
0.0
  0
VERTEX
  5
14E
330
14C
100
AcDbEntity
  8
PUMP_-_VISTA_LATO
100
AcDbVertex
100
AcDb2dVertex
 10
1031.08189007776
 20
-757.413548139074
 30
0.0
  0
VERTEX
  5
14F
330
14C
100
AcDbEntity
  8
PUMP_-_VISTA_LATO
100
AcDbVertex
100
AcDb2dVertex
 10
1031.08189007776
 20
-750.7468814724072
 30
0.0
  0
VERTEX
  5
150
330
14C
100
AcDbEntity
  8
PUMP_-_VISTA_LATO
100
AcDbVertex
100
AcDb2dVertex
 10
1051.081890077761
 20
-754.0802148057405
 30
0.0
  0
SEQEND
  5
152
330
14C
100
AcDbEntity
  8
PUMP_-_VISTA_LATO
  0
HATCH
  5
151
330
148
100
AcDbEntity
  8
PUMP_-_VISTA_LATO
 62
   250
100
AcDbHatch
 10
0.0
 20
0.0
 30
0.0
210
0.0
220
0.0
230
1.0
  2
SOLID
 70
     1
 71
     0
 91
        1
 92
        1
 93
        3
 72
     1
 10
1051.081890077761
 20
-754.0802148057405
 11
1031.08189007776
 21
-757.413548139074
 72
     1
 10
1031.08189007776
 20
-757.413548139074
 11
1031.08189007776
 21
-750.7468814724072
 72
     1
 10
1031.08189007776
 20
-750.7468814724072
 11
1051.081890077761
 21
-754.0802148057405
 97
        0
 75
     2
 76
     1
 98
        0
  0
ENDBLK
  5
14B
330
148
100
AcDbEntity
  8
0
100
AcDbBlockEnd
  0
BLOCK
  5
155
330
153
100
AcDbEntity
  8
0
100
AcDbBlockBegin
  2
BLOCK_9
 70
     0
 10
0.0
 20
0.0
 30
0.0
  3
BLOCK_9
  1

  0
POLYLINE
  5
157
330
153
100
AcDbEntity
  8
PUMP_-_VISTA_LATO
100
AcDb2dPolyline
 66
     1
 10
0.0
 20
0.0
 30
0.0
  0
VERTEX
  5
158
330
157
100
AcDbEntity
  8
PUMP_-_VISTA_LATO
100
AcDbVertex
100
AcDb2dVertex
 10
791.0818901427622
 20
-754.0802148057405
 30
0.0
  0
VERTEX
  5
159
330
157
100
AcDbEntity
  8
PUMP_-_VISTA_LATO
100
AcDbVertex
100
AcDb2dVertex
 10
811.0818901427629
 20
-757.413548139074
 30
0.0
  0
VERTEX
  5
15A
330
157
100
AcDbEntity
  8
PUMP_-_VISTA_LATO
100
AcDbVertex
100
AcDb2dVertex
 10
811.0818901427629
 20
-750.7468814724072
 30
0.0
  0
VERTEX
  5
15B
330
157
100
AcDbEntity
  8
PUMP_-_VISTA_LATO
100
AcDbVertex
100
AcDb2dVertex
 10
791.0818901427622
 20
-754.0802148057405
 30
0.0
  0
SEQEND
  5
15D
330
157
100
AcDbEntity
  8
PUMP_-_VISTA_LATO
  0
HATCH
  5
15C
330
153
100
AcDbEntity
  8
PUMP_-_VISTA_LATO
 62
   250
100
AcDbHatch
 10
0.0
 20
0.0
 30
0.0
210
0.0
220
0.0
230
1.0
  2
SOLID
 70
     1
 71
     0
 91
        1
 92
        1
 93
        3
 72
     1
 10
791.0818901427622
 20
-754.0802148057405
 11
811.0818901427629
 21
-757.413548139074
 72
     1
 10
811.0818901427629
 20
-757.413548139074
 11
811.0818901427629
 21
-750.7468814724072
 72
     1
 10
811.0818901427629
 20
-750.7468814724072
 11
791.0818901427622
 21
-754.0802148057405
 97
        0
 75
     2
 76
     1
 98
        0
  0
ENDBLK
  5
156
330
153
100
AcDbEntity
  8
0
100
AcDbBlockEnd
  0
BLOCK
  5
160
330
15E
100
AcDbEntity
  8
0
100
AcDbBlockBegin
  2
BLOCK_10
 70
     0
 10
0.0
 20
0.0
 30
0.0
  3
BLOCK_10
  1

  0
MTEXT
  5
162
330
15E
100
AcDbEntity
  8
PUMP_-_VISTA_LATO
 62
   250
100
AcDbMText
 10
896.9550482308937
 20
-700.513119840334
 30
0.0
 40
22.47899999438025
 41
0.0
 71
     7
 72
     1
  1
\fArial|b0|i0|c0|p34;\W1;260
  0
MTEXT
  5
163
330
15E
100
AcDbEntity
  8
PUMP_-_VISTA_LATO
 62
   250
100
AcDbMText
 10
883.722436472049
 20
-738.6124308117119
 30
0.0
 40
22.47899999438025
 41
0.0
 71
     7
 72
     1
  1
\fArial|b0|i0|c0|p34;\W1;[10,2]
  0
ENDBLK
  5
161
330
15E
100
AcDbEntity
  8
0
100
AcDbBlockEnd
  0
BLOCK
  5
16A
330
168
100
AcDbEntity
  8
0
100
AcDbBlockBegin
  2
BLOCK_11
 70
     0
 10
0.0
 20
0.0
 30
0.0
  3
BLOCK_11
  1

  0
POLYLINE
  5
16C
330
168
100
AcDbEntity
  8
PUMP_-_VISTA_LATO
 62
   250
100
AcDb2dPolyline
 66
     1
 10
0.0
 20
0.0
 30
0.0
  0
VERTEX
  5
16D
330
16C
100
AcDbEntity
  8
PUMP_-_VISTA_LATO
 62
   250
100
AcDbVertex
100
AcDb2dVertex
 10
791.0818901427622
 20
-854.9382206765749
 30
0.0
  0
VERTEX
  5
16E
330
16C
100
AcDbEntity
  8
PUMP_-_VISTA_LATO
 62
   250
100
AcDbVertex
100
AcDb2dVertex
 10
893.4181402093618
 20
-854.9382206765749
 30
0.0
  0
SEQEND
  5
16F
330
16C
100
AcDbEntity
  8
PUMP_-_VISTA_LATO
 62
   250
  0
ENDBLK
  5
16B
330
168
100
AcDbEntity
  8
0
100
AcDbBlockEnd
  0
BLOCK
  5
172
330
170
100
AcDbEntity
  8
0
100
AcDbBlockBegin
  2
BLOCK_12
 70
     0
 10
0.0
 20
0.0
 30
0.0
  3
BLOCK_12
  1

  0
POLYLINE
  5
174
330
170
100
AcDbEntity
  8
PUMP_-_VISTA_LATO
100
AcDb2dPolyline
 66
     1
 10
0.0
 20
0.0
 30
0.0
  0
VERTEX
  5
175
330
174
100
AcDbEntity
  8
PUMP_-_VISTA_LATO
100
AcDbVertex
100
AcDb2dVertex
 10
791.0818901427622
 20
-854.9382206765749
 30
0.0
  0
VERTEX
  5
176
330
174
100
AcDbEntity
  8
PUMP_-_VISTA_LATO
100
AcDbVertex
100
AcDb2dVertex
 10
811.0818901427629
 20
-851.6048873432414
 30
0.0
  0
VERTEX
  5
177
330
174
100
AcDbEntity
  8
PUMP_-_VISTA_LATO
100
AcDbVertex
100
AcDb2dVertex
 10
811.0818901427629
 20
-858.2715540099083
 30
0.0
  0
VERTEX
  5
178
330
174
100
AcDbEntity
  8
PUMP_-_VISTA_LATO
100
AcDbVertex
100
AcDb2dVertex
 10
791.0818901427622
 20
-854.9382206765749
 30
0.0
  0
SEQEND
  5
17A
330
174
100
AcDbEntity
  8
PUMP_-_VISTA_LATO
  0
HATCH
  5
179
330
170
100
AcDbEntity
  8
PUMP_-_VISTA_LATO
 62
   250
100
AcDbHatch
 10
0.0
 20
0.0
 30
0.0
210
0.0
220
0.0
230
1.0
  2
SOLID
 70
     1
 71
     0
 91
        1
 92
        1
 93
        3
 72
     1
 10
791.0818901427622
 20
-854.9382206765749
 11
811.0818901427629
 21
-851.6048873432414
 72
     1
 10
811.0818901427629
 20
-851.6048873432414
 11
811.0818901427629
 21
-858.2715540099083
 72
     1
 10
811.0818901427629
 20
-858.2715540099083
 11
791.0818901427622
 21
-854.9382206765749
 97
        0
 75
     2
 76
     1
 98
        0
  0
ENDBLK
  5
173
330
170
100
AcDbEntity
  8
0
100
AcDbBlockEnd
  0
BLOCK
  5
17D
330
17B
100
AcDbEntity
  8
0
100
AcDbBlockBegin
  2
BLOCK_13
 70
     0
 10
0.0
 20
0.0
 30
0.0
  3
BLOCK_13
  1

  0
POLYLINE
  5
17F
330
17B
100
AcDbEntity
  8
PUMP_-_VISTA_LATO
100
AcDb2dPolyline
 66
     1
 10
0.0
 20
0.0
 30
0.0
  0
VERTEX
  5
180
330
17F
100
AcDbEntity
  8
PUMP_-_VISTA_LATO
100
AcDbVertex
100
AcDb2dVertex
 10
893.4181402093618
 20
-854.9382206765749
 30
0.0
  0
VERTEX
  5
181
330
17F
100
AcDbEntity
  8
PUMP_-_VISTA_LATO
100
AcDbVertex
100
AcDb2dVertex
 10
873.4181402093643
 20
-851.6048873432414
 30
0.0
  0
VERTEX
  5
182
330
17F
100
AcDbEntity
  8
PUMP_-_VISTA_LATO
100
AcDbVertex
100
AcDb2dVertex
 10
873.4181402093643
 20
-858.2715540099083
 30
0.0
  0
VERTEX
  5
183
330
17F
100
AcDbEntity
  8
PUMP_-_VISTA_LATO
100
AcDbVertex
100
AcDb2dVertex
 10
893.4181402093618
 20
-854.9382206765749
 30
0.0
  0
SEQEND
  5
185
330
17F
100
AcDbEntity
  8
PUMP_-_VISTA_LATO
  0
HATCH
  5
184
330
17B
100
AcDbEntity
  8
PUMP_-_VISTA_LATO
 62
   250
100
AcDbHatch
 10
0.0
 20
0.0
 30
0.0
210
0.0
220
0.0
230
1.0
  2
SOLID
 70
     1
 71
     0
 91
        1
 92
        1
 93
        3
 72
     1
 10
893.4181402093618
 20
-854.9382206765749
 11
873.4181402093643
 21
-851.6048873432414
 72
     1
 10
873.4181402093643
 20
-851.6048873432414
 11
873.4181402093643
 21
-858.2715540099083
 72
     1
 10
873.4181402093643
 20
-858.2715540099083
 11
893.4181402093618
 21
-854.9382206765749
 97
        0
 75
     2
 76
     1
 98
        0
  0
ENDBLK
  5
17E
330
17B
100
AcDbEntity
  8
0
100
AcDbBlockEnd
  0
BLOCK
  5
188
330
186
100
AcDbEntity
  8
0
100
AcDbBlockBegin
  2
BLOCK_14
 70
     0
 10
0.0
 20
0.0
 30
0.0
  3
BLOCK_14
  1

  0
MTEXT
  5
18A
330
186
100
AcDbEntity
  8
PUMP_-_VISTA_LATO
 62
   250
100
AcDbMText
 10
815.114624879297
 20
-800.9957892216803
 30
0.0
 40
22.47899999438025
 41
0.0
 71
     7
 72
     1
  1
\fArial|b0|i0|c0|p34;\W1;102
  0
MTEXT
  5
18B
330
186
100
AcDbEntity
  8
PUMP_-_VISTA_LATO
 62
   250
100
AcDbMText
 10
810.7117928491477
 20
-839.0951001930582
 30
0.0
 40
22.47899999438025
 41
0.0
 71
     7
 72
     1
  1
\fArial|b0|i0|c0|p34;\W1;[4,0]
  0
ENDBLK
  5
189
330
186
100
AcDbEntity
  8
0
100
AcDbBlockEnd
  0
BLOCK
  5
18E
330
18C
100
AcDbEntity
  8
0
100
AcDbBlockBegin
  2
BLOCK_15
 70
     0
 10
0.0
 20
0.0
 30
0.0
  3
BLOCK_15
  1

  0
INSERT
  5
191
330
18C
100
AcDbEntity
  8
PUMP_-_VISTA_LATO
100
AcDbBlockReference
  2
BLOCK_16
 10
0.0
 20
0.0
 30
0.0
  0
INSERT
  5
19A
330
18C
100
AcDbEntity
  8
PUMP_-_VISTA_LATO
100
AcDbBlockReference
  2
BLOCK_17
 10
0.0
 20
0.0
 30
0.0
  0
ENDBLK
  5
18F
330
18C
100
AcDbEntity
  8
0
100
AcDbBlockEnd
  0
BLOCK
  5
192
330
190
100
AcDbEntity
  8
0
100
AcDbBlockBegin
  2
BLOCK_16
 70
     0
 10
0.0
 20
0.0
 30
0.0
  3
BLOCK_16
  1

  0
POLYLINE
  5
194
330
190
100
AcDbEntity
  8
PUMP_-_VISTA_LATO
  6
AI-LINETYPE-1
 62
   250
100
AcDb2dPolyline
 66
     1
 10
0.0
 20
0.0
 30
0.0
  0
VERTEX
  5
195
330
194
100
AcDbEntity
  8
PUMP_-_VISTA_LATO
  6
AI-LINETYPE-1
 62
   250
100
AcDbVertex
100
AcDb2dVertex
 10
1031.41814020936
 20
-1260.273328433828
 30
0.0
  0
VERTEX
  5
196
330
194
100
AcDbEntity
  8
PUMP_-_VISTA_LATO
  6
AI-LINETYPE-1
 62
   250
100
AcDbVertex
100
AcDb2dVertex
 10
796.4508251547281
 20
-1260.273328433828
 30
0.0
  0
SEQEND
  5
198
330
194
100
AcDbEntity
  8
PUMP_-_VISTA_LATO
  6
AI-LINETYPE-1
 62
   250
  0
ENDBLK
  5
193
330
190
100
AcDbEntity
  8
0
100
AcDbBlockEnd
  0
BLOCK
  5
19B
330
199
100
AcDbEntity
  8
0
100
AcDbBlockBegin
  2
BLOCK_17
 70
     0
 10
0.0
 20
0.0
 30
0.0
  3
BLOCK_17
  1

  0
POLYLINE
  5
19D
330
199
100
AcDbEntity
  8
PUMP_-_VISTA_LATO
  6
AI-LINETYPE-2
 62
   250
100
AcDb2dPolyline
 66
     1
 10
0.0
 20
0.0
 30
0.0
  0
VERTEX
  5
19E
330
19D
100
AcDbEntity
  8
PUMP_-_VISTA_LATO
  6
AI-LINETYPE-2
 62
   250
100
AcDbVertex
100
AcDb2dVertex
 10
893.4181402093618
 20
-902.976069014595
 30
0.0
  0
VERTEX
  5
19F
330
19D
100
AcDbEntity
  8
PUMP_-_VISTA_LATO
  6
AI-LINETYPE-2
 62
   250
100
AcDbVertex
100
AcDb2dVertex
 10
893.4181402093618
 20
-1316.165985537069
 30
0.0
  0
SEQEND
  5
1A1
330
19D
100
AcDbEntity
  8
PUMP_-_VISTA_LATO
  6
AI-LINETYPE-2
 62
   250
  0
ENDBLK
  5
19C
330
199
100
AcDbEntity
  8
0
100
AcDbBlockEnd
  0
BLOCK
  5
1D8
330
1D6
100
AcDbEntity
  8
0
100
AcDbBlockBegin
  2
BLOCK_18
 70
     0
 10
0.0
 20
0.0
 30
0.0
  3
BLOCK_18
  1

  0
INSERT
  5
1DB
330
1D6
100
AcDbEntity
  8
PUMP_-_VISTA_LATO
100
AcDbBlockReference
  2
BLOCK_19
 10
0.0
 20
0.0
 30
0.0
  0
INSERT
  5
24D
330
1D6
100
AcDbEntity
  8
PUMP_-_VISTA_LATO
100
AcDbBlockReference
  2
BLOCK_20
 10
0.0
 20
0.0
 30
0.0
  0
INSERT
  5
2FA
330
1D6
100
AcDbEntity
  8
PUMP_-_VISTA_LATO
100
AcDbBlockReference
  2
BLOCK_23
 10
0.0
 20
0.0
 30
0.0
  0
ENDBLK
  5
1D9
330
1D6
100
AcDbEntity
  8
0
100
AcDbBlockEnd
  0
BLOCK
  5
1DC
330
1DA
100
AcDbEntity
  8
0
100
AcDbBlockBegin
  2
BLOCK_19
 70
     0
 10
0.0
 20
0.0
 30
0.0
  3
BLOCK_19
  1

  0
POLYLINE
  5
1DE
330
1DA
100
AcDbEntity
  8
PUMP_-_VISTA_LATO
 62
   250
100
AcDb2dPolyline
 66
     1
 10
0.0
 20
0.0
 30
0.0
  0
VERTEX
  5
1DF
330
1DE
100
AcDbEntity
  8
PUMP_-_VISTA_LATO
 62
   250
100
AcDbVertex
100
AcDb2dVertex
 10
800.9825786340848
 20
-1257.646121854561
 30
0.0
  0
VERTEX
  5
1E0
330
1DE
100
AcDbEntity
  8
PUMP_-_VISTA_LATO
 62
   250
100
AcDbVertex
100
AcDb2dVertex
 10
793.2426153544249
 20
-1257.646121854561
 30
0.0
  0
SEQEND
  5
1E1
330
1DE
100
AcDbEntity
  8
PUMP_-_VISTA_LATO
 62
   250
  0
POLYLINE
  5
1E2
330
1DA
100
AcDbEntity
  8
PUMP_-_VISTA_LATO
 62
   250
100
AcDb2dPolyline
 66
     1
 10
0.0
 20
0.0
 30
0.0
  0
VERTEX
  5
1E3
330
1E2
100
AcDbEntity
  8
PUMP_-_VISTA_LATO
 62
   250
100
AcDbVertex
100
AcDb2dVertex
 10
869.2452585063282
 20
-1262.900556506821
 30
0.0
  0
VERTEX
  5
1E4
330
1E2
100
AcDbEntity
  8
PUMP_-_VISTA_LATO
 62
   250
100
AcDbVertex
100
AcDb2dVertex
 10
1047.491725071069
 20
-1262.900556506821
 30
0.0
  0
VERTEX
  5
1E5
330
1E2
100
AcDbEntity
  8
PUMP_-_VISTA_LATO
 62
   250
100
AcDbVertex
100
AcDb2dVertex
 10
1049.480243837417
 20
-1260.273511104937
 30
0.0
  0
VERTEX
  5
1E6
330
1E2
100
AcDbEntity
  8
PUMP_-_VISTA_LATO
 62
   250
100
AcDbVertex
100
AcDb2dVertex
 10
1047.488544472583
 20
-1257.646121854561
 30
0.0
  0
VERTEX
  5
1E7
330
1E2
100
AcDbEntity
  8
PUMP_-_VISTA_LATO
 62
   250
100
AcDbVertex
100
AcDb2dVertex
 10
813.5475684931433
 20
-1257.646121854561
 30
0.0
  0
SEQEND
  5
1E8
330
1E2
100
AcDbEntity
  8
PUMP_-_VISTA_LATO
 62
   250
  0
POLYLINE
  5
1E9
330
1DA
100
AcDbEntity
  8
PUMP_-_VISTA_LATO
 62
   250
100
AcDb2dPolyline
 66
     1
 10
0.0
 20
0.0
 30
0.0
  0
VERTEX
  5
1EA
330
1E9
100
AcDbEntity
  8
PUMP_-_VISTA_LATO
 62
   250
100
AcDbVertex
100
AcDb2dVertex
 10
824.9099619245795
 20
-1269.491874066446
 30
0.0
  0
VERTEX
  5
1EB
330
1E9
100
AcDbEntity
  8
PUMP_-_VISTA_LATO
 62
   250
100
AcDbVertex
100
AcDb2dVertex
 10
824.9289595533409
 20
-1274.424079707764
 30
0.0
  0
VERTEX
  5
1EC
330
1E9
100
AcDbEntity
  8
PUMP_-_VISTA_LATO
 62
   250
100
AcDbVertex
100
AcDb2dVertex
 10
824.9497623866392
 20
-1274.71669476799
 30
0.0
  0
SEQEND
  5
1ED
330
1E9
100
AcDbEntity
  8
PUMP_-_VISTA_LATO
 62
   250
  0
POLYLINE
  5
1EE
330
1DA
100
AcDbEntity
  8
PUMP_-_VISTA_LATO
 62
   250
100
AcDb2dPolyline
 66
     1
 10
0.0
 20
0.0
 30
0.0
  0
VERTEX
  5
1EF
330
1EE
100
AcDbEntity
  8
PUMP_-_VISTA_LATO
 62
   250
100
AcDbVertex
100
AcDb2dVertex
 10
1049.224936337743
 20
-1317.228273193831
 30
0.0
  0
VERTEX
  5
1F0
330
1EE
100
AcDbEntity
  8
PUMP_-_VISTA_LATO
 62
   250
100
AcDbVertex
100
AcDb2dVertex
 10
1037.767904837484
 20
-1317.228273193831
 30
0.0
  0
SEQEND
  5
1F1
330
1EE
100
AcDbEntity
  8
PUMP_-_VISTA_LATO
 62
   250
  0
POLYLINE
  5
1F2
330
1DA
100
AcDbEntity
  8
PUMP_-_VISTA_LATO
 62
   250
100
AcDb2dPolyline
 66
     1
 10
0.0
 20
0.0
 30
0.0
  0
VERTEX
  5
1F3
330
1F2
100
AcDbEntity
  8
PUMP_-_VISTA_LATO
 62
   250
100
AcDbVertex
100
AcDb2dVertex
 10
825.5810682040052
 20
-1291.214007786333
 30
0.0
  0
VERTEX
  5
1F4
330
1F2
100
AcDbEntity
  8
PUMP_-_VISTA_LATO
 62
   250
100
AcDbVertex
100
AcDb2dVertex
 10
824.7870790724564
 20
-1291.214007786333
 30
0.0
  0
VERTEX
  5
1F5
330
1F2
100
AcDbEntity
  8
PUMP_-_VISTA_LATO
 62
   250
100
AcDbVertex
100
AcDb2dVertex
 10
824.1121044975873
 20
-1291.214007786333
 30
0.0
  0
VERTEX
  5
1F6
330
1F2
100
AcDbEntity
  8
PUMP_-_VISTA_LATO
 62
   250
100
AcDbVertex
100
AcDb2dVertex
 10
823.6899445208621
 20
-1291.214007786333
 30
0.0
  0
VERTEX
  5
1F7
330
1F2
100
AcDbEntity
  8
PUMP_-_VISTA_LATO
 62
   250
100
AcDbVertex
100
AcDb2dVertex
 10
823.522662233197
 20
-1291.214007786333
 30
0.0
  0
VERTEX
  5
1F8
330
1F2
100
AcDbEntity
  8
PUMP_-_VISTA_LATO
 62
   250
100
AcDbVertex
100
AcDb2dVertex
 10
823.5195246157764
 20
-1291.214007786333
 30
0.0
  0
SEQEND
  5
1F9
330
1F2
100
AcDbEntity
  8
PUMP_-_VISTA_LATO
 62
   250
  0
SPLINE
  5
1FA
330
1DA
100
AcDbEntity
  8
PUMP_-_VISTA_LATO
 62
   250
100
AcDbSpline
210
0.0
220
0.0
230
1.0
 70
    11
 71
     3
 72
    32
 73
    28
 74
     0
 42
0.0000000001
 43
0.0000000001
 12
1.0
 22
0.0
 32
0.0
 13
1.0
 23
0.0
 33
0.0
 40
0.0
 40
0.0
 40
0.0
 40
0.0
 40
1.0
 40
1.0
 40
1.0
 40
2.0
 40
2.0
 40
2.0
 40
3.0
 40
3.0
 40
3.0
 40
4.0
 40
4.0
 40
4.0
 40
5.0
 40
5.0
 40
5.0
 40
6.0
 40
6.0
 40
6.0
 40
7.0
 40
7.0
 40
7.0
 40
8.0
 40
8.0
 40
8.0
 40
9.0
 40
9.0
 40
9.0
 40
9.0
 10
819.7122622722442
 20
-1239.417854075208
 30
0.0
 10
813.7491016314345
 20
-1247.085492607862
 30
0.0
 10
813.1575215951491
 20
-1257.245108559623
 30
0.0
 10
813.1575215951491
 20
-1257.245108559623
 30
0.0
 10
813.1575215951491
 20
-1257.245108559623
 30
0.0
 10
813.2290205893732
 20
-1257.728903377183
 30
0.0
 10
812.5077339217507
 20
-1257.728903377183
 30
0.0
 10
812.5077339217507
 20
-1257.728903377183
 30
0.0
 10
801.4561857467089
 20
-1257.728903377183
 30
0.0
 10
801.4561857467089
 20
-1257.728903377183
 30
0.0
 10
801.4561857467089
 20
-1257.728903377183
 30
0.0
 10
801.2546967593843
 20
-1257.791808266203
 30
0.0
 10
801.329778447637
 20
-1257.445615207093
 30
0.0
 10
801.4048601358768
 20
-1257.099422147977
 30
0.0
 10
802.312581517678
 20
-1251.932125892504
 30
0.0
 10
802.4628451658571
 20
-1248.607720593568
 30
0.0
 10
802.4628451658571
 20
-1248.607720593568
 30
0.0
 10
802.9075272183053
 20
-1238.769656701053
 30
0.0
 10
802.9075272183053
 20
-1238.769656701053
 30
0.0
 10
802.9508859853252
 20
-1237.81039531901
 30
0.0
 10
804.0283566505939
 20
-1237.81650870228
 30
0.0
 10
804.0283566505939
 20
-1237.81650870228
 30
0.0
 10
804.0283566505939
 20
-1237.81650870228
 30
0.0
 10
819.5914854920901
 20
-1237.81650870228
 30
0.0
 10
819.5914854920901
 20
-1237.81650870228
 30
0.0
 10
820.7668071318371
 20
-1237.81650870228
 30
0.0
 10
819.7122622722442
 20
-1239.417854075208
 30
0.0
 10
819.7122622722442
 20
-1239.417854075208
 30
0.0
  0
POLYLINE
  5
1FB
330
1DA
100
AcDbEntity
  8
PUMP_-_VISTA_LATO
 62
   250
100
AcDb2dPolyline
 66
     1
 10
0.0
 20
0.0
 30
0.0
  0
VERTEX
  5
1FC
330
1FB
100
AcDbEntity
  8
PUMP_-_VISTA_LATO
 62
   250
100
AcDbVertex
100
AcDb2dVertex
 10
926.374491944294
 20
-1232.353658887415
 30
0.0
  0
VERTEX
  5
1FD
330
1FB
100
AcDbEntity
  8
PUMP_-_VISTA_LATO
 62
   250
100
AcDbVertex
100
AcDb2dVertex
 10
926.374491944294
 20
-1232.353658887415
 30
0.0
  0
SEQEND
  5
1FE
330
1FB
100
AcDbEntity
  8
PUMP_-_VISTA_LATO
 62
   250
  0
SPLINE
  5
1FF
330
1DA
100
AcDbEntity
  8
PUMP_-_VISTA_LATO
 62
   250
100
AcDbSpline
210
0.0
220
0.0
230
1.0
 70
     8
 71
     3
 72
   131
 73
   127
 74
     0
 42
0.0000000001
 43
0.0000000001
 12
1.0
 22
0.0
 32
0.0
 13
1.0
 23
0.0
 33
0.0
 40
0.0
 40
0.0
 40
0.0
 40
0.0
 40
1.0
 40
1.0
 40
1.0
 40
2.0
 40
2.0
 40
2.0
 40
3.0
 40
3.0
 40
3.0
 40
4.0
 40
4.0
 40
4.0
 40
5.0
 40
5.0
 40
5.0
 40
6.0
 40
6.0
 40
6.0
 40
7.0
 40
7.0
 40
7.0
 40
8.0
 40
8.0
 40
8.0
 40
9.0
 40
9.0
 40
9.0
 40
10.0
 40
10.0
 40
10.0
 40
11.0
 40
11.0
 40
11.0
 40
12.0
 40
12.0
 40
12.0
 40
13.0
 40
13.0
 40
13.0
 40
14.0
 40
14.0
 40
14.0
 40
15.0
 40
15.0
 40
15.0
 40
16.0
 40
16.0
 40
16.0
 40
17.0
 40
17.0
 40
17.0
 40
18.0
 40
18.0
 40
18.0
 40
19.0
 40
19.0
 40
19.0
 40
20.0
 40
20.0
 40
20.0
 40
21.0
 40
21.0
 40
21.0
 40
22.0
 40
22.0
 40
22.0
 40
23.0
 40
23.0
 40
23.0
 40
24.0
 40
24.0
 40
24.0
 40
25.0
 40
25.0
 40
25.0
 40
26.0
 40
26.0
 40
26.0
 40
27.0
 40
27.0
 40
27.0
 40
28.0
 40
28.0
 40
28.0
 40
29.0
 40
29.0
 40
29.0
 40
30.0
 40
30.0
 40
30.0
 40
31.0
 40
31.0
 40
31.0
 40
32.0
 40
32.0
 40
32.0
 40
33.0
 40
33.0
 40
33.0
 40
34.0
 40
34.0
 40
34.0
 40
35.0
 40
35.0
 40
35.0
 40
36.0
 40
36.0
 40
36.0
 40
37.0
 40
37.0
 40
37.0
 40
38.0
 40
38.0
 40
38.0
 40
39.0
 40
39.0
 40
39.0
 40
40.0
 40
40.0
 40
40.0
 40
41.0
 40
41.0
 40
41.0
 40
42.0
 40
42.0
 40
42.0
 40
42.0
 10
792.7275919701729
 20
-1257.245108559623
 30
0.0
 10
792.7275919701729
 20
-1257.245108559623
 30
0.0
 10
793.1384909090301
 20
-1254.415966211024
 30
0.0
 10
793.1384909090301
 20
-1254.415966211024
 30
0.0
 10
797.1132017918776
 20
-1236.152171053891
 30
0.0
 10
812.5138802134073
 20
-1231.356541263707
 30
0.0
 10
812.5138802134073
 20
-1231.356541263707
 30
0.0
 10
812.5138802134073
 20
-1231.356541263707
 30
0.0
 10
813.6774504772646
 20
-1230.984706270699
 30
0.0
 10
813.726161026225
 20
-1229.589675826607
 30
0.0
 10
813.726161026225
 20
-1229.589675826607
 30
0.0
 10
814.4669825858675
 20
-1208.373149812507
 30
0.0
 10
814.4669825858675
 20
-1208.373149812507
 30
0.0
 10
814.4669825858675
 20
-1208.373149812507
 30
0.0
 10
972.3032366081186
 20
-1208.373149812507
 30
0.0
 10
972.3032366081186
 20
-1208.373149812507
 30
0.0
 10
972.3032366081186
 20
-1208.373149812507
 30
0.0
 10
972.9697868951309
 20
-1227.461597556651
 30
0.0
 10
972.9697868951309
 20
-1227.461597556651
 30
0.0
 10
972.9697868951309
 20
-1227.461597556651
 30
0.0
 10
972.9379310764454
 20
-1229.332992933007
 30
0.0
 10
974.9531479342203
 20
-1229.332992933007
 30
0.0
 10
974.9531479342203
 20
-1229.332992933007
 30
0.0
 10
1018.316825885471
 20
-1229.332992933007
 30
0.0
 10
1018.316825885471
 20
-1229.332992933007
 30
0.0
 10
1018.316825885471
 20
-1229.332992933007
 30
0.0
 10
1019.141014921311
 20
-1229.335181707373
 30
0.0
 10
1019.723853883645
 20
-1228.752404767093
 30
0.0
 10
1019.723853883645
 20
-1228.752404767093
 30
0.0
 10
1022.551191027702
 20
-1225.925368490458
 30
0.0
 10
1022.551191027702
 20
-1225.925368490458
 30
0.0
 10
1022.551191027702
 20
-1225.925368490458
 30
0.0
 10
1023.085805154578
 20
-1225.340525199553
 30
0.0
 10
1023.962431169801
 20
-1225.340525199553
 30
0.0
 10
1023.962431169801
 20
-1225.340525199553
 30
0.0
 10
1034.360323376001
 20
-1225.340525199553
 30
0.0
 10
1034.360323376001
 20
-1225.340525199553
 30
0.0
 10
1034.360323376001
 20
-1225.340525199553
 30
0.0
 10
1036.261559376578
 20
-1225.465804073546
 30
0.0
 10
1036.355289301433
 20
-1223.414200027817
 30
0.0
 10
1036.355289301433
 20
-1223.414200027817
 30
0.0
 10
1036.830659831118
 20
-1209.800894681856
 30
0.0
 10
1036.830659831118
 20
-1209.800894681856
 30
0.0
 10
1036.903273403582
 20
-1207.72144155522
 30
0.0
 10
1039.114329540274
 20
-1207.874225661641
 30
0.0
 10
1039.114329540274
 20
-1207.874225661641
 30
0.0
 10
1039.114329540274
 20
-1207.874225661641
 30
0.0
 10
1047.878855483445
 20
-1207.874225661641
 30
0.0
 10
1047.878855483445
 20
-1207.874225661641
 30
0.0
 10
1047.878855483445
 20
-1207.874225661641
 30
0.0
 10
1050.088592478167
 20
-1207.69066851602
 30
0.0
 10
1050.162267306229
 20
-1209.800894681856
 30
0.0
 10
1050.162267306229
 20
-1209.800894681856
 30
0.0
 10
1050.637551873794
 20
-1223.414200027817
 30
0.0
 10
1050.637551873794
 20
-1223.414200027817
 30
0.0
 10
1050.637551873794
 20
-1223.414200027817
 30
0.0
 10
1050.643923537546
 20
-1223.912653261374
 30
0.0
 10
1051.081890077761
 20
-1224.601465863398
 30
0.0
 10
1051.081890077761
 20
-1224.601465863398
 30
0.0
 10
1051.081890077761
 20
-1295.945191007467
 30
0.0
 10
1051.081890077761
 20
-1295.945191007467
 30
0.0
 10
1050.605926063422
 20
-1296.333071318572
 30
0.0
 10
1050.637551873794
 20
-1297.132822182054
 30
0.0
 10
1050.637551873794
 20
-1297.132822182054
 30
0.0
 10
1050.637551873794
 20
-1297.132822182054
 30
0.0
 10
1049.168974996918
 20
-1339.191638116059
 30
0.0
 10
1049.168974996918
 20
-1339.191638116059
 30
0.0
 10
1049.098118324303
 20
-1341.220914075539
 30
0.0
 10
1047.112331249584
 20
-1341.117963287805
 30
0.0
 10
1047.112331249584
 20
-1341.117963287805
 30
0.0
 10
1047.112331249584
 20
-1341.117963287805
 30
0.0
 10
1039.880509925644
 20
-1341.117963287805
 30
0.0
 10
1039.880509925644
 20
-1341.117963287805
 30
0.0
 10
1037.786432377172
 20
-1341.117963287805
 30
0.0
 10
1037.823952140442
 20
-1339.191638116059
 30
0.0
 10
1037.823952140442
 20
-1339.191638116059
 30
0.0
 10
1037.823952140442
 20
-1339.191638116059
 30
0.0
 10
1036.355289301433
 20
-1297.132822182054
 30
0.0
 10
1036.355289301433
 20
-1297.132822182054
 30
0.0
 10
1036.387623087512
 20
-1294.969395323779
 30
0.0
 10
1034.360323376001
 20
-1295.206131671306
 30
0.0
 10
1034.360323376001
 20
-1295.206131671306
 30
0.0
 10
1034.360323376001
 20
-1295.206131671306
 30
0.0
 10
1023.962431169801
 20
-1295.206131671306
 30
0.0
 10
1023.962431169801
 20
-1295.206131671306
 30
0.0
 10
1022.913487901012
 20
-1295.206131671306
 30
0.0
 10
1022.551191027702
 20
-1294.621653719409
 30
0.0
 10
1022.551191027702
 20
-1294.621653719409
 30
0.0
 10
1022.551191027702
 20
-1294.621653719409
 30
0.0
 10
1019.73193432302
 20
-1291.802375524213
 30
0.0
 10
1019.73193432302
 20
-1291.802375524213
 30
0.0
 10
1019.093799683818
 20
-1291.16423602065
 30
0.0
 10
1018.316825885471
 20
-1291.214007786333
 30
0.0
 10
1018.316825885471
 20
-1291.214007786333
 30
0.0
 10
1018.316825885471
 20
-1291.214007786333
 30
0.0
 10
870.1394047332459
 20
-1291.214007786333
 30
0.0
 10
870.1394047332459
 20
-1291.214007786333
 30
0.0
 10
870.2078053545274
 20
-1289.164824174223
 30
0.0
 10
870.5542356773138
 20
-1286.663192144532
 30
0.0
 10
869.3280971878011
 20
-1284.911565730943
 30
0.0
 10
868.101958698282
 20
-1283.159939317353
 30
0.0
 10
867.8944179785889
 20
-1281.280547429918
 30
0.0
 10
867.8944179785889
 20
-1281.280547429918
 30
0.0
 10
867.8944179785889
 20
-1281.280547429918
 30
0.0
 10
867.3440884793044
 20
-1277.697947089876
 30
0.0
 10
867.3440884793044
 20
-1277.697947089876
 30
0.0
 10
867.3440884793044
 20
-1277.697947089876
 30
0.0
 10
866.6807187907722
 20
-1274.057924052943
 30
0.0
 10
866.6807187907722
 20
-1274.057924052943
 30
0.0
 10
866.6807187907722
 20
-1274.057924052943
 30
0.0
 10
865.7406370344202
 20
-1269.289046441709
 30
0.0
 10
865.7406370344202
 20
-1269.289046441709
 30
0.0
 10
865.7406370344202
 20
-1269.289046441709
 30
0.0
 10
864.7632047364433
 20
-1264.476199205533
 30
0.0
 10
864.7632047364433
 20
-1264.476199205533
 30
0.0
 10
864.7164349053205
 20
-1264.245905963825
 30
0.0
 10
864.1667565591889
 20
-1264.276896027764
 30
0.0
 10
864.1667565591889
 20
-1264.276896027764
 30
0.0
 10
864.1667565591889
 20
-1264.276896027764
 30
0.0
 10
825.6215563630379
 20
-1264.276896027764
 30
0.0
 10
825.6215563630379
 20
-1264.276896027764
 30
0.0
 10
825.6215563630379
 20
-1264.276896027764
 30
0.0
 10
825.2267691426434
 20
-1264.292555718831
 30
0.0
 10
825.2080810760505
 20
-1264.599257087893
 30
0.0
 10
825.2080810760505
 20
-1264.599257087893
 30
0.0
 10
824.9099619245795
 20
-1269.491874066446
 30
0.0
 10
824.9099619245795
 20
-1269.491874066446
 30
0.0
  0
POLYLINE
  5
200
330
1DA
100
AcDbEntity
  8
PUMP_-_VISTA_LATO
 62
   250
100
AcDb2dPolyline
 66
     1
 10
0.0
 20
0.0
 30
0.0
  0
VERTEX
  5
201
330
200
100
AcDbEntity
  8
PUMP_-_VISTA_LATO
 62
   250
100
AcDbVertex
100
AcDb2dVertex
 10
792.7275919701729
 20
-1257.245108559623
 30
0.0
  0
VERTEX
  5
202
330
200
100
AcDbEntity
  8
PUMP_-_VISTA_LATO
 62
   250
100
AcDbVertex
100
AcDb2dVertex
 10
792.7208869247247
 20
-1257.297545453493
 30
0.0
  0
VERTEX
  5
203
330
200
100
AcDbEntity
  8
PUMP_-_VISTA_LATO
 62
   250
100
AcDbVertex
100
AcDb2dVertex
 10
792.711388110344
 20
-1257.35002532843
 30
0.0
  0
VERTEX
  5
204
330
200
100
AcDbEntity
  8
PUMP_-_VISTA_LATO
 62
   250
100
AcDbVertex
100
AcDb2dVertex
 10
792.6994393755062
 20
-1257.401430676849
 30
0.0
  0
VERTEX
  5
205
330
200
100
AcDbEntity
  8
PUMP_-_VISTA_LATO
 62
   250
100
AcDbVertex
100
AcDb2dVertex
 10
792.6846538906733
 20
-1257.452492176779
 30
0.0
  0
VERTEX
  5
206
330
200
100
AcDbEntity
  8
PUMP_-_VISTA_LATO
 62
   250
100
AcDbVertex
100
AcDb2dVertex
 10
792.667031655855
 20
-1257.502479150199
 30
0.0
  0
VERTEX
  5
207
330
200
100
AcDbEntity
  8
PUMP_-_VISTA_LATO
 62
   250
100
AcDbVertex
100
AcDb2dVertex
 10
792.6466156520945
 20
-1257.551778426649
 30
0.0
  0
VERTEX
  5
208
330
200
100
AcDbEntity
  8
PUMP_-_VISTA_LATO
 62
   250
100
AcDbVertex
100
AcDb2dVertex
 10
792.624050595312
 20
-1257.599659328113
 30
0.0
  0
VERTEX
  5
209
330
200
100
AcDbEntity
  8
PUMP_-_VISTA_LATO
 62
   250
100
AcDbVertex
100
AcDb2dVertex
 10
792.5987347506436
 20
-1257.646121854561
 30
0.0
  0
SEQEND
  5
20A
330
200
100
AcDbEntity
  8
PUMP_-_VISTA_LATO
 62
   250
  0
POLYLINE
  5
20B
330
1DA
100
AcDbEntity
  8
PUMP_-_VISTA_LATO
 62
   250
100
AcDb2dPolyline
 66
     1
 10
0.0
 20
0.0
 30
0.0
  0
VERTEX
  5
20C
330
20B
100
AcDbEntity
  8
PUMP_-_VISTA_LATO
 62
   250
100
AcDbVertex
100
AcDb2dVertex
 10
792.5987347506436
 20
-1262.900556506821
 30
0.0
  0
VERTEX
  5
20D
330
20B
100
AcDbEntity
  8
PUMP_-_VISTA_LATO
 62
   250
100
AcDbVertex
100
AcDb2dVertex
 10
792.624050595312
 20
-1262.947362881761
 30
0.0
  0
VERTEX
  5
20E
330
20B
100
AcDbEntity
  8
PUMP_-_VISTA_LATO
 62
   250
100
AcDbVertex
100
AcDb2dVertex
 10
792.6466156520945
 20
-1262.995243783218
 30
0.0
  0
VERTEX
  5
20F
330
20B
100
AcDbEntity
  8
PUMP_-_VISTA_LATO
 62
   250
100
AcDbVertex
100
AcDb2dVertex
 10
792.667031655855
 20
-1263.044199211186
 30
0.0
  0
VERTEX
  5
210
330
20B
100
AcDbEntity
  8
PUMP_-_VISTA_LATO
 62
   250
100
AcDbVertex
100
AcDb2dVertex
 10
792.6846538906733
 20
-1263.094186184606
 30
0.0
  0
VERTEX
  5
211
330
20B
100
AcDbEntity
  8
PUMP_-_VISTA_LATO
 62
   250
100
AcDbVertex
100
AcDb2dVertex
 10
792.6994393755062
 20
-1263.14524768453
 30
0.0
  0
VERTEX
  5
212
330
20B
100
AcDbEntity
  8
PUMP_-_VISTA_LATO
 62
   250
100
AcDbVertex
100
AcDb2dVertex
 10
792.711388110344
 20
-1263.196996881444
 30
0.0
  0
VERTEX
  5
213
330
20B
100
AcDbEntity
  8
PUMP_-_VISTA_LATO
 62
   250
100
AcDbVertex
100
AcDb2dVertex
 10
792.7208869247247
 20
-1263.249132907886
 30
0.0
  0
VERTEX
  5
214
330
20B
100
AcDbEntity
  8
PUMP_-_VISTA_LATO
 62
   250
100
AcDbVertex
100
AcDb2dVertex
 10
792.7275919701729
 20
-1263.301913650244
 30
0.0
  0
SEQEND
  5
215
330
20B
100
AcDbEntity
  8
PUMP_-_VISTA_LATO
 62
   250
  0
POLYLINE
  5
216
330
1DA
100
AcDbEntity
  8
PUMP_-_VISTA_LATO
 62
   250
100
AcDb2dPolyline
 66
     1
 10
0.0
 20
0.0
 30
0.0
  0
VERTEX
  5
217
330
216
100
AcDbEntity
  8
PUMP_-_VISTA_LATO
 62
   250
100
AcDbVertex
100
AcDb2dVertex
 10
792.7275919701729
 20
-1263.301913650244
 30
0.0
  0
VERTEX
  5
218
330
216
100
AcDbEntity
  8
PUMP_-_VISTA_LATO
 62
   250
100
AcDbVertex
100
AcDb2dVertex
 10
793.1363848370611
 20
-1266.119451112496
 30
0.0
  0
VERTEX
  5
219
330
216
100
AcDbEntity
  8
PUMP_-_VISTA_LATO
 62
   250
100
AcDbVertex
100
AcDb2dVertex
 10
793.8022044460441
 20
-1268.887302468744
 30
0.0
  0
VERTEX
  5
21A
330
216
100
AcDbEntity
  8
PUMP_-_VISTA_LATO
 62
   250
100
AcDbVertex
100
AcDb2dVertex
 10
794.7197641266762
 20
-1271.58230092737
 30
0.0
  0
VERTEX
  5
21B
330
216
100
AcDbEntity
  8
PUMP_-_VISTA_LATO
 62
   250
100
AcDbVertex
100
AcDb2dVertex
 10
795.8809834395598
 20
-1274.181838450511
 30
0.0
  0
VERTEX
  5
21C
330
216
100
AcDbEntity
  8
PUMP_-_VISTA_LATO
 62
   250
100
AcDbVertex
100
AcDb2dVertex
 10
797.2767503998714
 20
-1276.663435943496
 30
0.0
  0
VERTEX
  5
21D
330
216
100
AcDbEntity
  8
PUMP_-_VISTA_LATO
 62
   250
100
AcDbVertex
100
AcDb2dVertex
 10
798.8942996326091
 20
-1279.005989705601
 30
0.0
  0
VERTEX
  5
21E
330
216
100
AcDbEntity
  8
PUMP_-_VISTA_LATO
 62
   250
100
AcDbVertex
100
AcDb2dVertex
 10
800.7202640279614
 20
-1281.190416145947
 30
0.0
  0
VERTEX
  5
21F
330
216
100
AcDbEntity
  8
PUMP_-_VISTA_LATO
 62
   250
100
AcDbVertex
100
AcDb2dVertex
 10
802.7395572336767
 20
-1283.197373787277
 30
0.0
  0
VERTEX
  5
220
330
216
100
AcDbEntity
  8
PUMP_-_VISTA_LATO
 62
   250
100
AcDbVertex
100
AcDb2dVertex
 10
804.9345570149075
 20
-1285.010357902353
 30
0.0
  0
VERTEX
  5
221
330
216
100
AcDbEntity
  8
PUMP_-_VISTA_LATO
 62
   250
100
AcDbVertex
100
AcDb2dVertex
 10
807.286953439888
 20
-1286.613809347237
 30
0.0
  0
VERTEX
  5
222
330
216
100
AcDbEntity
  8
PUMP_-_VISTA_LATO
 62
   250
100
AcDbVertex
100
AcDb2dVertex
 10
809.777018201802
 20
-1287.994403993171
 30
0.0
  0
VERTEX
  5
223
330
216
100
AcDbEntity
  8
PUMP_-_VISTA_LATO
 62
   250
100
AcDbVertex
100
AcDb2dVertex
 10
812.383260770391
 20
-1289.140150124259
 30
0.0
  0
VERTEX
  5
224
330
216
100
AcDbEntity
  8
PUMP_-_VISTA_LATO
 62
   250
100
AcDbVertex
100
AcDb2dVertex
 10
815.08354589946
 20
-1290.041871284073
 30
0.0
  0
VERTEX
  5
225
330
216
100
AcDbEntity
  8
PUMP_-_VISTA_LATO
 62
   250
100
AcDbVertex
100
AcDb2dVertex
 10
817.8556093996491
 20
-1290.691143184746
 30
0.0
  0
VERTEX
  5
226
330
216
100
AcDbEntity
  8
PUMP_-_VISTA_LATO
 62
   250
100
AcDbVertex
100
AcDb2dVertex
 10
820.6755967823484
 20
-1291.083023004315
 30
0.0
  0
VERTEX
  5
227
330
216
100
AcDbEntity
  8
PUMP_-_VISTA_LATO
 62
   250
100
AcDbVertex
100
AcDb2dVertex
 10
823.5195246157764
 20
-1291.214007786333
 30
0.0
  0
SEQEND
  5
228
330
216
100
AcDbEntity
  8
PUMP_-_VISTA_LATO
 62
   250
  0
POLYLINE
  5
229
330
1DA
100
AcDbEntity
  8
PUMP_-_VISTA_LATO
 62
   250
100
AcDb2dPolyline
 66
     1
 10
0.0
 20
0.0
 30
0.0
  0
VERTEX
  5
22A
330
229
100
AcDbEntity
  8
PUMP_-_VISTA_LATO
 62
   250
100
AcDbVertex
100
AcDb2dVertex
 10
792.5987347506436
 20
-1257.646121854561
 30
0.0
  0
VERTEX
  5
22B
330
229
100
AcDbEntity
  8
PUMP_-_VISTA_LATO
 62
   250
100
AcDbVertex
100
AcDb2dVertex
 10
791.0818901427622
 20
-1260.273511104937
 30
0.0
  0
SEQEND
  5
22C
330
229
100
AcDbEntity
  8
PUMP_-_VISTA_LATO
 62
   250
  0
POLYLINE
  5
22D
330
1DA
100
AcDbEntity
  8
PUMP_-_VISTA_LATO
 62
   250
100
AcDb2dPolyline
 66
     1
 10
0.0
 20
0.0
 30
0.0
  0
VERTEX
  5
22E
330
22D
100
AcDbEntity
  8
PUMP_-_VISTA_LATO
 62
   250
100
AcDbVertex
100
AcDb2dVertex
 10
791.0818901427622
 20
-1260.273511104937
 30
0.0
  0
VERTEX
  5
22F
330
22D
100
AcDbEntity
  8
PUMP_-_VISTA_LATO
 62
   250
100
AcDbVertex
100
AcDb2dVertex
 10
792.5987347506436
 20
-1262.900556506821
 30
0.0
  0
SEQEND
  5
230
330
22D
100
AcDbEntity
  8
PUMP_-_VISTA_LATO
 62
   250
  0
POLYLINE
  5
231
330
1DA
100
AcDbEntity
  8
PUMP_-_VISTA_LATO
 62
   250
100
AcDb2dPolyline
 66
     1
 10
0.0
 20
0.0
 30
0.0
  0
VERTEX
  5
232
330
231
100
AcDbEntity
  8
PUMP_-_VISTA_LATO
 62
   250
100
AcDbVertex
100
AcDb2dVertex
 10
824.9497623866392
 20
-1274.71669476799
 30
0.0
  0
VERTEX
  5
233
330
231
100
AcDbEntity
  8
PUMP_-_VISTA_LATO
 62
   250
100
AcDbVertex
100
AcDb2dVertex
 10
825.5810682040052
 20
-1291.214007786333
 30
0.0
  0
SEQEND
  5
234
330
231
100
AcDbEntity
  8
PUMP_-_VISTA_LATO
 62
   250
  0
SPLINE
  5
235
330
1DA
100
AcDbEntity
  8
PUMP_-_VISTA_LATO
 62
   250
100
AcDbSpline
210
0.0
220
0.0
230
1.0
 70
     8
 71
     3
 72
    20
 73
    16
 74
     0
 42
0.0000000001
 43
0.0000000001
 12
1.0
 22
0.0
 32
0.0
 13
1.0
 23
0.0
 33
0.0
 40
0.0
 40
0.0
 40
0.0
 40
0.0
 40
1.0
 40
1.0
 40
1.0
 40
2.0
 40
2.0
 40
2.0
 40
3.0
 40
3.0
 40
3.0
 40
4.0
 40
4.0
 40
4.0
 40
5.0
 40
5.0
 40
5.0
 40
5.0
 10
824.7811047050503
 20
-1291.214007786333
 30
0.0
 10
824.7811047050503
 20
-1291.214007786333
 30
0.0
 10
826.8454420622181
 20
-1337.779001089488
 30
0.0
 10
826.8454420622181
 20
-1337.779001089488
 30
0.0
 10
826.8454420622181
 20
-1337.779001089488
 30
0.0
 10
827.005547783615
 20
-1341.079237352234
 30
0.0
 10
830.1776296938365
 20
-1341.098600320023
 30
0.0
 10
830.1776296938365
 20
-1341.098600320023
 30
0.0
 10
864.2473890287791
 20
-1341.117963287805
 30
0.0
 10
864.2473890287791
 20
-1341.117963287805
 30
0.0
 10
867.6017700444996
 20
-1341.117963287805
 30
0.0
 10
867.7451447552929
 20
-1337.806809835667
 30
0.0
 10
867.7451447552929
 20
-1337.806809835667
 30
0.0
 10
867.7451447552929
 20
-1337.806809835667
 30
0.0
 10
870.1394047332459
 20
-1291.214007786333
 30
0.0
 10
870.1394047332459
 20
-1291.214007786333
 30
0.0
  0
SPLINE
  5
236
330
1DA
100
AcDbEntity
  8
PUMP_-_VISTA_LATO
 62
   250
100
AcDbSpline
210
0.0
220
0.0
230
1.0
 70
     8
 71
     3
 72
    11
 73
     7
 74
     0
 42
0.0000000001
 43
0.0000000001
 12
1.0
 22
0.0
 32
0.0
 13
1.0
 23
0.0
 33
0.0
 40
0.0
 40
0.0
 40
0.0
 40
0.0
 40
1.0
 40
1.0
 40
1.0
 40
2.0
 40
2.0
 40
2.0
 40
2.0
 10
816.4348919336902
 20
-1230.468359137967
 30
0.0
 10
816.4348919336902
 20
-1230.468359137967
 30
0.0
 10
968.6815449935101
 20
-1232.030075973057
 30
0.0
 10
968.6815449935101
 20
-1232.030075973057
 30
0.0
 10
968.6815449935101
 20
-1232.030075973057
 30
0.0
 10
971.1659388075801
 20
-1232.056515264316
 30
0.0
 10
972.9330906794884
 20
-1230.102787793597
 30
0.0
  0
POLYLINE
  5
237
330
1DA
100
AcDbEntity
  8
PUMP_-_VISTA_LATO
 62
   250
100
AcDb2dPolyline
 66
     1
 10
0.0
 20
0.0
 30
0.0
  0
VERTEX
  5
238
330
237
100
AcDbEntity
  8
PUMP_-_VISTA_LATO
 62
   250
100
AcDbVertex
100
AcDb2dVertex
 10
1023.231452273021
 20
-1226.616203076687
 30
0.0
  0
VERTEX
  5
239
330
237
100
AcDbEntity
  8
PUMP_-_VISTA_LATO
 62
   250
100
AcDbVertex
100
AcDb2dVertex
 10
1023.231452273021
 20
-1256.842899331785
 30
0.0
  0
SEQEND
  5
23A
330
237
100
AcDbEntity
  8
PUMP_-_VISTA_LATO
 62
   250
  0
POLYLINE
  5
23B
330
1DA
100
AcDbEntity
  8
PUMP_-_VISTA_LATO
 62
   250
100
AcDb2dPolyline
 66
     1
 10
0.0
 20
0.0
 30
0.0
  0
VERTEX
  5
23C
330
23B
100
AcDbEntity
  8
PUMP_-_VISTA_LATO
 62
   250
100
AcDbVertex
100
AcDb2dVertex
 10
1023.231452273021
 20
-1263.972171331498
 30
0.0
  0
VERTEX
  5
23D
330
23B
100
AcDbEntity
  8
PUMP_-_VISTA_LATO
 62
   250
100
AcDbVertex
100
AcDb2dVertex
 10
1023.231452273021
 20
-1293.747032118277
 30
0.0
  0
SEQEND
  5
23E
330
23B
100
AcDbEntity
  8
PUMP_-_VISTA_LATO
 62
   250
  0
SPLINE
  5
23F
330
1DA
100
AcDbEntity
  8
PUMP_-_VISTA_LATO
 62
   250
100
AcDbSpline
210
0.0
220
0.0
230
1.0
 70
    11
 71
     3
 72
    32
 73
    28
 74
     0
 42
0.0000000001
 43
0.0000000001
 12
1.0
 22
0.0
 32
0.0
 13
1.0
 23
0.0
 33
0.0
 40
0.0
 40
0.0
 40
0.0
 40
0.0
 40
1.0
 40
1.0
 40
1.0
 40
2.0
 40
2.0
 40
2.0
 40
3.0
 40
3.0
 40
3.0
 40
4.0
 40
4.0
 40
4.0
 40
5.0
 40
5.0
 40
5.0
 40
6.0
 40
6.0
 40
6.0
 40
7.0
 40
7.0
 40
7.0
 40
8.0
 40
8.0
 40
8.0
 40
9.0
 40
9.0
 40
9.0
 40
9.0
 10
819.7122622722442
 20
-1281.146187705398
 30
0.0
 10
819.7122622722442
 20
-1281.146187705398
 30
0.0
 10
820.7668071318371
 20
-1282.74753307832
 30
0.0
 10
819.5914854920901
 20
-1282.74753307832
 30
0.0
 10
819.5914854920901
 20
-1282.74753307832
 30
0.0
 10
804.0283566505939
 20
-1282.74753307832
 30
0.0
 10
804.0283566505939
 20
-1282.74753307832
 30
0.0
 10
804.0283566505939
 20
-1282.74753307832
 30
0.0
 10
802.9508859853252
 20
-1282.753646461596
 30
0.0
 10
802.9075272183053
 20
-1281.79438507956
 30
0.0
 10
802.9075272183053
 20
-1281.79438507956
 30
0.0
 10
802.4628451658571
 20
-1271.956321187031
 30
0.0
 10
802.4628451658571
 20
-1271.956321187031
 30
0.0
 10
802.312581517678
 20
-1268.631915888109
 30
0.0
 10
801.4048601358768
 20
-1263.464619632622
 30
0.0
 10
801.329778447637
 20
-1263.118426573512
 30
0.0
 10
801.2546967593843
 20
-1262.772233514403
 30
0.0
 10
801.4561857467089
 20
-1262.835138403423
 30
0.0
 10
801.4561857467089
 20
-1262.835138403423
 30
0.0
 10
801.4561857467089
 20
-1262.835138403423
 30
0.0
 10
812.5077339217507
 20
-1262.835138403423
 30
0.0
 10
812.5077339217507
 20
-1262.835138403423
 30
0.0
 10
813.2290205893732
 20
-1262.835138403423
 30
0.0
 10
813.1575215951491
 20
-1263.318933220977
 30
0.0
 10
813.1575215951491
 20
-1263.318933220977
 30
0.0
 10
813.1575215951491
 20
-1263.318933220977
 30
0.0
 10
813.7491016314345
 20
-1273.478549172744
 30
0.0
 10
819.7122622722442
 20
-1281.146187705398
 30
0.0
  0
POLYLINE
  5
240
330
1DA
100
AcDbEntity
  8
PUMP_-_VISTA_LATO
 62
   250
100
AcDb2dPolyline
 66
     1
 10
0.0
 20
0.0
 30
0.0
  0
VERTEX
  5
241
330
240
100
AcDbEntity
  8
PUMP_-_VISTA_LATO
 62
   250
100
AcDbVertex
100
AcDb2dVertex
 10
800.6433662560083
 20
-1262.830669263268
 30
0.0
  0
VERTEX
  5
242
330
240
100
AcDbEntity
  8
PUMP_-_VISTA_LATO
 62
   250
100
AcDbVertex
100
AcDb2dVertex
 10
793.5743773280022
 20
-1262.830669263268
 30
0.0
  0
SEQEND
  5
243
330
240
100
AcDbEntity
  8
PUMP_-_VISTA_LATO
 62
   250
  0
POLYLINE
  5
244
330
1DA
100
AcDbEntity
  8
PUMP_-_VISTA_LATO
 62
   250
100
AcDb2dPolyline
 66
     1
 10
0.0
 20
0.0
 30
0.0
  0
VERTEX
  5
245
330
244
100
AcDbEntity
  8
PUMP_-_VISTA_LATO
 62
   250
100
AcDbVertex
100
AcDb2dVertex
 10
1036.00387615037
 20
-1226.58624527748
 30
0.0
  0
VERTEX
  5
246
330
244
100
AcDbEntity
  8
PUMP_-_VISTA_LATO
 62
   250
100
AcDbVertex
100
AcDb2dVertex
 10
1036.00387615037
 20
-1256.246185731381
 30
0.0
  0
SEQEND
  5
247
330
244
100
AcDbEntity
  8
PUMP_-_VISTA_LATO
 62
   250
  0
POLYLINE
  5
248
330
1DA
100
AcDbEntity
  8
PUMP_-_VISTA_LATO
 62
   250
100
AcDb2dPolyline
 66
     1
 10
0.0
 20
0.0
 30
0.0
  0
VERTEX
  5
249
330
248
100
AcDbEntity
  8
PUMP_-_VISTA_LATO
 62
   250
100
AcDbVertex
100
AcDb2dVertex
 10
1036.00387615037
 20
-1263.802660390278
 30
0.0
  0
VERTEX
  5
24A
330
248
100
AcDbEntity
  8
PUMP_-_VISTA_LATO
 62
   250
100
AcDbVertex
100
AcDb2dVertex
 10
1036.00387615037
 20
-1295.122683942244
 30
0.0
  0
SEQEND
  5
24B
330
248
100
AcDbEntity
  8
PUMP_-_VISTA_LATO
 62
   250
  0
ENDBLK
  5
1DD
330
1DA
100
AcDbEntity
  8
0
100
AcDbBlockEnd
  0
BLOCK
  5
24E
330
24C
100
AcDbEntity
  8
0
100
AcDbBlockBegin
  2
BLOCK_20
 70
     0
 10
0.0
 20
0.0
 30
0.0
  3
BLOCK_20
  1

  0
POLYLINE
  5
250
330
24C
100
AcDbEntity
  8
PUMP_-_VISTA_LATO
 62
   250
100
AcDb2dPolyline
 66
     1
 10
0.0
 20
0.0
 30
0.0
  0
VERTEX
  5
251
330
250
100
AcDbEntity
  8
PUMP_-_VISTA_LATO
 62
   250
100
AcDbVertex
100
AcDb2dVertex
 10
969.2705260921842
 20
-1025.523329192065
 30
0.0
  0
VERTEX
  5
252
330
250
100
AcDbEntity
  8
PUMP_-_VISTA_LATO
 62
   250
100
AcDbVertex
100
AcDb2dVertex
 10
817.4511751671438
 20
-1025.523329192065
 30
0.0
  0
VERTEX
  5
253
330
250
100
AcDbEntity
  8
PUMP_-_VISTA_LATO
 62
   250
100
AcDbVertex
100
AcDb2dVertex
 10
817.4511751671438
 20
-1012.500297908611
 30
0.0
  0
VERTEX
  5
254
330
250
100
AcDbEntity
  8
PUMP_-_VISTA_LATO
 62
   250
100
AcDbVertex
100
AcDb2dVertex
 10
969.2705260921842
 20
-1012.500297908611
 30
0.0
  0
VERTEX
  5
255
330
250
100
AcDbEntity
  8
PUMP_-_VISTA_LATO
 62
   250
100
AcDbVertex
100
AcDb2dVertex
 10
969.2705260921842
 20
-1025.523329192065
 30
0.0
  0
SEQEND
  5
256
330
250
100
AcDbEntity
  8
PUMP_-_VISTA_LATO
 62
   250
  0
INSERT
  5
258
330
24C
100
AcDbEntity
  8
PUMP_-_VISTA_LATO
100
AcDbBlockReference
  2
BLOCK_21
 10
0.0
 20
0.0
 30
0.0
  0
INSERT
  5
261
330
24C
100
AcDbEntity
  8
PUMP_-_VISTA_LATO
100
AcDbBlockReference
  2
BLOCK_22
 10
0.0
 20
0.0
 30
0.0
  0
SPLINE
  5
269
330
24C
100
AcDbEntity
  8
PUMP_-_VISTA_LATO
 62
   250
100
AcDbSpline
210
0.0
220
0.0
230
1.0
 70
     8
 71
     3
 72
     8
 73
     4
 74
     0
 42
0.0000000001
 43
0.0000000001
 12
1.0
 22
0.0
 32
0.0
 13
1.0
 23
0.0
 33
0.0
 40
0.0
 40
0.0
 40
0.0
 40
0.0
 40
1.0
 40
1.0
 40
1.0
 40
1.0
 10
963.9924294918251
 20
-1025.523329192065
 30
0.0
 10
961.5441136778159
 20
-1025.652187919119
 30
0.0
 10
959.6250273266868
 20
-1027.674934991196
 30
0.0
 10
959.6250273266868
 20
-1030.126639479226
 30
0.0
  0
POLYLINE
  5
26A
330
24C
100
AcDbEntity
  8
PUMP_-_VISTA_LATO
 62
   250
100
AcDb2dPolyline
 66
     1
 10
0.0
 20
0.0
 30
0.0
  0
VERTEX
  5
26B
330
26A
100
AcDbEntity
  8
PUMP_-_VISTA_LATO
 62
   250
100
AcDbVertex
100
AcDb2dVertex
 10
946.1646031653517
 20
-1025.523329192065
 30
0.0
  0
VERTEX
  5
26C
330
26A
100
AcDbEntity
  8
PUMP_-_VISTA_LATO
 62
   250
100
AcDbVertex
100
AcDb2dVertex
 10
946.1646031653517
 20
-1199.982662113189
 30
0.0
  0
SEQEND
  5
26D
330
26A
100
AcDbEntity
  8
PUMP_-_VISTA_LATO
 62
   250
  0
POLYLINE
  5
26E
330
24C
100
AcDbEntity
  8
PUMP_-_VISTA_LATO
 62
   250
100
AcDb2dPolyline
 66
     1
 10
0.0
 20
0.0
 30
0.0
  0
VERTEX
  5
26F
330
26E
100
AcDbEntity
  8
PUMP_-_VISTA_LATO
 62
   250
100
AcDbVertex
100
AcDb2dVertex
 10
940.4025010979408
 20
-1025.523329192065
 30
0.0
  0
VERTEX
  5
270
330
26E
100
AcDbEntity
  8
PUMP_-_VISTA_LATO
 62
   250
100
AcDbVertex
100
AcDb2dVertex
 10
940.4025010979408
 20
-1199.982662113189
 30
0.0
  0
SEQEND
  5
271
330
26E
100
AcDbEntity
  8
PUMP_-_VISTA_LATO
 62
   250
  0
POLYLINE
  5
272
330
24C
100
AcDbEntity
  8
PUMP_-_VISTA_LATO
 62
   250
100
AcDb2dPolyline
 66
     1
 10
0.0
 20
0.0
 30
0.0
  0
VERTEX
  5
273
330
272
100
AcDbEntity
  8
PUMP_-_VISTA_LATO
 62
   250
100
AcDbVertex
100
AcDb2dVertex
 10
956.7439762929813
 20
-1196.525402192454
 30
0.0
  0
VERTEX
  5
274
330
272
100
AcDbEntity
  8
PUMP_-_VISTA_LATO
 62
   250
100
AcDbVertex
100
AcDb2dVertex
 10
956.7439762929813
 20
-1181.388549758333
 30
0.0
  0
SEQEND
  5
275
330
272
100
AcDbEntity
  8
PUMP_-_VISTA_LATO
 62
   250
  0
POLYLINE
  5
276
330
24C
100
AcDbEntity
  8
PUMP_-_VISTA_LATO
 62
   250
100
AcDb2dPolyline
 66
     1
 10
0.0
 20
0.0
 30
0.0
  0
VERTEX
  5
277
330
276
100
AcDbEntity
  8
PUMP_-_VISTA_LATO
 62
   250
100
AcDbVertex
100
AcDb2dVertex
 10
829.9777308098187
 20
-1196.525402192454
 30
0.0
  0
VERTEX
  5
278
330
276
100
AcDbEntity
  8
PUMP_-_VISTA_LATO
 62
   250
100
AcDbVertex
100
AcDb2dVertex
 10
829.9777308098187
 20
-1181.388549758333
 30
0.0
  0
SEQEND
  5
279
330
276
100
AcDbEntity
  8
PUMP_-_VISTA_LATO
 62
   250
  0
POLYLINE
  5
27A
330
24C
100
AcDbEntity
  8
PUMP_-_VISTA_LATO
 62
   250
100
AcDb2dPolyline
 66
     1
 10
0.0
 20
0.0
 30
0.0
  0
VERTEX
  5
27B
330
27A
100
AcDbEntity
  8
PUMP_-_VISTA_LATO
 62
   250
100
AcDbVertex
100
AcDb2dVertex
 10
896.2419045851022
 20
-1025.523329192065
 30
0.0
  0
VERTEX
  5
27C
330
27A
100
AcDbEntity
  8
PUMP_-_VISTA_LATO
 62
   250
100
AcDbVertex
100
AcDb2dVertex
 10
896.2419045851022
 20
-1199.982662113189
 30
0.0
  0
SEQEND
  5
27D
330
27A
100
AcDbEntity
  8
PUMP_-_VISTA_LATO
 62
   250
  0
POLYLINE
  5
27E
330
24C
100
AcDbEntity
  8
PUMP_-_VISTA_LATO
 62
   250
100
AcDb2dPolyline
 66
     1
 10
0.0
 20
0.0
 30
0.0
  0
VERTEX
  5
27F
330
27E
100
AcDbEntity
  8
PUMP_-_VISTA_LATO
 62
   250
100
AcDbVertex
100
AcDb2dVertex
 10
890.4798025176913
 20
-1025.523329192065
 30
0.0
  0
VERTEX
  5
280
330
27E
100
AcDbEntity
  8
PUMP_-_VISTA_LATO
 62
   250
100
AcDbVertex
100
AcDb2dVertex
 10
890.4798025176913
 20
-1199.982662113189
 30
0.0
  0
SEQEND
  5
281
330
27E
100
AcDbEntity
  8
PUMP_-_VISTA_LATO
 62
   250
  0
POLYLINE
  5
282
330
24C
100
AcDbEntity
  8
PUMP_-_VISTA_LATO
 62
   250
100
AcDb2dPolyline
 66
     1
 10
0.0
 20
0.0
 30
0.0
  0
VERTEX
  5
283
330
282
100
AcDbEntity
  8
PUMP_-_VISTA_LATO
 62
   250
100
AcDbVertex
100
AcDb2dVertex
 10
919.4790186615343
 20
-1025.523329192065
 30
0.0
  0
VERTEX
  5
284
330
282
100
AcDbEntity
  8
PUMP_-_VISTA_LATO
 62
   250
100
AcDbVertex
100
AcDb2dVertex
 10
919.4790186615343
 20
-1199.982662113189
 30
0.0
  0
SEQEND
  5
285
330
282
100
AcDbEntity
  8
PUMP_-_VISTA_LATO
 62
   250
  0
POLYLINE
  5
286
330
24C
100
AcDbEntity
  8
PUMP_-_VISTA_LATO
 62
   250
100
AcDb2dPolyline
 66
     1
 10
0.0
 20
0.0
 30
0.0
  0
VERTEX
  5
287
330
286
100
AcDbEntity
  8
PUMP_-_VISTA_LATO
 62
   250
100
AcDbVertex
100
AcDb2dVertex
 10
925.241120728958
 20
-1025.523329192065
 30
0.0
  0
VERTEX
  5
288
330
286
100
AcDbEntity
  8
PUMP_-_VISTA_LATO
 62
   250
100
AcDbVertex
100
AcDb2dVertex
 10
925.241120728958
 20
-1199.982662113189
 30
0.0
  0
SEQEND
  5
289
330
286
100
AcDbEntity
  8
PUMP_-_VISTA_LATO
 62
   250
  0
POLYLINE
  5
28A
330
24C
100
AcDbEntity
  8
PUMP_-_VISTA_LATO
 62
   250
100
AcDb2dPolyline
 66
     1
 10
0.0
 20
0.0
 30
0.0
  0
VERTEX
  5
28B
330
28A
100
AcDbEntity
  8
PUMP_-_VISTA_LATO
 62
   250
100
AcDbVertex
100
AcDb2dVertex
 10
873.0047905086831
 20
-1025.523329192065
 30
0.0
  0
VERTEX
  5
28C
330
28A
100
AcDbEntity
  8
PUMP_-_VISTA_LATO
 62
   250
100
AcDbVertex
100
AcDb2dVertex
 10
873.0047905086831
 20
-1199.982662113189
 30
0.0
  0
SEQEND
  5
28D
330
28A
100
AcDbEntity
  8
PUMP_-_VISTA_LATO
 62
   250
  0
POLYLINE
  5
28E
330
24C
100
AcDbEntity
  8
PUMP_-_VISTA_LATO
 62
   250
100
AcDb2dPolyline
 66
     1
 10
0.0
 20
0.0
 30
0.0
  0
VERTEX
  5
28F
330
28E
100
AcDbEntity
  8
PUMP_-_VISTA_LATO
 62
   250
100
AcDbVertex
100
AcDb2dVertex
 10
867.2426884412465
 20
-1025.523329192065
 30
0.0
  0
VERTEX
  5
290
330
28E
100
AcDbEntity
  8
PUMP_-_VISTA_LATO
 62
   250
100
AcDbVertex
100
AcDb2dVertex
 10
867.2426884412465
 20
-1199.982662113189
 30
0.0
  0
SEQEND
  5
291
330
28E
100
AcDbEntity
  8
PUMP_-_VISTA_LATO
 62
   250
  0
POLYLINE
  5
292
330
24C
100
AcDbEntity
  8
PUMP_-_VISTA_LATO
 62
   250
100
AcDb2dPolyline
 66
     1
 10
0.0
 20
0.0
 30
0.0
  0
VERTEX
  5
293
330
292
100
AcDbEntity
  8
PUMP_-_VISTA_LATO
 62
   250
100
AcDbVertex
100
AcDb2dVertex
 10
846.3192060048656
 20
-1025.523329192065
 30
0.0
  0
VERTEX
  5
294
330
292
100
AcDbEntity
  8
PUMP_-_VISTA_LATO
 62
   250
100
AcDbVertex
100
AcDb2dVertex
 10
846.3192060048656
 20
-1199.982662113189
 30
0.0
  0
SEQEND
  5
295
330
292
100
AcDbEntity
  8
PUMP_-_VISTA_LATO
 62
   250
  0
POLYLINE
  5
296
330
24C
100
AcDbEntity
  8
PUMP_-_VISTA_LATO
 62
   250
100
AcDb2dPolyline
 66
     1
 10
0.0
 20
0.0
 30
0.0
  0
VERTEX
  5
297
330
296
100
AcDbEntity
  8
PUMP_-_VISTA_LATO
 62
   250
100
AcDbVertex
100
AcDb2dVertex
 10
852.0813080722734
 20
-1025.523329192065
 30
0.0
  0
VERTEX
  5
298
330
296
100
AcDbEntity
  8
PUMP_-_VISTA_LATO
 62
   250
100
AcDbVertex
100
AcDb2dVertex
 10
852.0813080722734
 20
-1199.982662113189
 30
0.0
  0
SEQEND
  5
299
330
296
100
AcDbEntity
  8
PUMP_-_VISTA_LATO
 62
   250
  0
POLYLINE
  5
29A
330
24C
100
AcDbEntity
  8
PUMP_-_VISTA_LATO
 62
   250
100
AcDb2dPolyline
 66
     1
 10
0.0
 20
0.0
 30
0.0
  0
VERTEX
  5
29B
330
29A
100
AcDbEntity
  8
PUMP_-_VISTA_LATO
 62
   250
100
AcDbVertex
100
AcDb2dVertex
 10
852.0813080722734
 20
-1030.126639479226
 30
0.0
  0
VERTEX
  5
29C
330
29A
100
AcDbEntity
  8
PUMP_-_VISTA_LATO
 62
   250
100
AcDbVertex
100
AcDb2dVertex
 10
867.2426884412465
 20
-1030.126639479226
 30
0.0
  0
SEQEND
  5
29D
330
29A
100
AcDbEntity
  8
PUMP_-_VISTA_LATO
 62
   250
  0
POLYLINE
  5
29E
330
24C
100
AcDbEntity
  8
PUMP_-_VISTA_LATO
 62
   250
100
AcDb2dPolyline
 66
     1
 10
0.0
 20
0.0
 30
0.0
  0
VERTEX
  5
29F
330
29E
100
AcDbEntity
  8
PUMP_-_VISTA_LATO
 62
   250
100
AcDbVertex
100
AcDb2dVertex
 10
827.0966797761132
 20
-1030.126639479226
 30
0.0
  0
VERTEX
  5
2A0
330
29E
100
AcDbEntity
  8
PUMP_-_VISTA_LATO
 62
   250
100
AcDbVertex
100
AcDb2dVertex
 10
846.3192060048656
 20
-1030.126639479226
 30
0.0
  0
SEQEND
  5
2A1
330
29E
100
AcDbEntity
  8
PUMP_-_VISTA_LATO
 62
   250
  0
POLYLINE
  5
2A2
330
24C
100
AcDbEntity
  8
PUMP_-_VISTA_LATO
 62
   250
100
AcDb2dPolyline
 66
     1
 10
0.0
 20
0.0
 30
0.0
  0
VERTEX
  5
2A3
330
2A2
100
AcDbEntity
  8
PUMP_-_VISTA_LATO
 62
   250
100
AcDbVertex
100
AcDb2dVertex
 10
873.0047905086831
 20
-1030.126639479226
 30
0.0
  0
VERTEX
  5
2A4
330
2A2
100
AcDbEntity
  8
PUMP_-_VISTA_LATO
 62
   250
100
AcDbVertex
100
AcDb2dVertex
 10
890.4798025176913
 20
-1030.126639479226
 30
0.0
  0
SEQEND
  5
2A5
330
2A2
100
AcDbEntity
  8
PUMP_-_VISTA_LATO
 62
   250
  0
SPLINE
  5
2A6
330
24C
100
AcDbEntity
  8
PUMP_-_VISTA_LATO
 62
   250
100
AcDbSpline
210
0.0
220
0.0
230
1.0
 70
     8
 71
     3
 72
     8
 73
     4
 74
     0
 42
0.0000000001
 43
0.0000000001
 12
1.0
 22
0.0
 32
0.0
 13
1.0
 23
0.0
 33
0.0
 40
0.0
 40
0.0
 40
0.0
 40
0.0
 40
1.0
 40
1.0
 40
1.0
 40
1.0
 10
827.0966797761132
 20
-1030.126639479226
 30
0.0
 10
827.0966797761132
 20
-1027.674934991196
 30
0.0
 10
825.1775934249778
 20
-1025.652187919119
 30
0.0
 10
822.7292776109749
 20
-1025.523329192065
 30
0.0
  0
POLYLINE
  5
2A7
330
24C
100
AcDbEntity
  8
PUMP_-_VISTA_LATO
 62
   250
100
AcDb2dPolyline
 66
     1
 10
0.0
 20
0.0
 30
0.0
  0
VERTEX
  5
2A8
330
2A7
100
AcDbEntity
  8
PUMP_-_VISTA_LATO
 62
   250
100
AcDbVertex
100
AcDb2dVertex
 10
890.4798025176913
 20
-1174.814821912607
 30
0.0
  0
VERTEX
  5
2A9
330
2A7
100
AcDbEntity
  8
PUMP_-_VISTA_LATO
 62
   250
100
AcDbVertex
100
AcDb2dVertex
 10
873.0047905086831
 20
-1174.814821912607
 30
0.0
  0
SEQEND
  5
2AA
330
2A7
100
AcDbEntity
  8
PUMP_-_VISTA_LATO
 62
   250
  0
POLYLINE
  5
2AB
330
24C
100
AcDbEntity
  8
PUMP_-_VISTA_LATO
 62
   250
100
AcDb2dPolyline
 66
     1
 10
0.0
 20
0.0
 30
0.0
  0
VERTEX
  5
2AC
330
2AB
100
AcDbEntity
  8
PUMP_-_VISTA_LATO
 62
   250
100
AcDbVertex
100
AcDb2dVertex
 10
873.0047905086831
 20
-1181.388549758333
 30
0.0
  0
VERTEX
  5
2AD
330
2AB
100
AcDbEntity
  8
PUMP_-_VISTA_LATO
 62
   250
100
AcDbVertex
100
AcDb2dVertex
 10
890.4798025176913
 20
-1181.388549758333
 30
0.0
  0
SEQEND
  5
2AE
330
2AB
100
AcDbEntity
  8
PUMP_-_VISTA_LATO
 62
   250
  0
POLYLINE
  5
2AF
330
24C
100
AcDbEntity
  8
PUMP_-_VISTA_LATO
 62
   250
100
AcDb2dPolyline
 66
     1
 10
0.0
 20
0.0
 30
0.0
  0
VERTEX
  5
2B0
330
2AF
100
AcDbEntity
  8
PUMP_-_VISTA_LATO
 62
   250
100
AcDbVertex
100
AcDb2dVertex
 10
946.1646031653517
 20
-1030.126639479226
 30
0.0
  0
VERTEX
  5
2B1
330
2AF
100
AcDbEntity
  8
PUMP_-_VISTA_LATO
 62
   250
100
AcDbVertex
100
AcDb2dVertex
 10
959.6250273266868
 20
-1030.126639479226
 30
0.0
  0
SEQEND
  5
2B2
330
2AF
100
AcDbEntity
  8
PUMP_-_VISTA_LATO
 62
   250
  0
POLYLINE
  5
2B3
330
24C
100
AcDbEntity
  8
PUMP_-_VISTA_LATO
 62
   250
100
AcDb2dPolyline
 66
     1
 10
0.0
 20
0.0
 30
0.0
  0
VERTEX
  5
2B4
330
2B3
100
AcDbEntity
  8
PUMP_-_VISTA_LATO
 62
   250
100
AcDbVertex
100
AcDb2dVertex
 10
925.241120728958
 20
-1030.126639479226
 30
0.0
  0
VERTEX
  5
2B5
330
2B3
100
AcDbEntity
  8
PUMP_-_VISTA_LATO
 62
   250
100
AcDbVertex
100
AcDb2dVertex
 10
940.4025010979408
 20
-1030.126639479226
 30
0.0
  0
SEQEND
  5
2B6
330
2B3
100
AcDbEntity
  8
PUMP_-_VISTA_LATO
 62
   250
  0
POLYLINE
  5
2B7
330
24C
100
AcDbEntity
  8
PUMP_-_VISTA_LATO
 62
   250
100
AcDb2dPolyline
 66
     1
 10
0.0
 20
0.0
 30
0.0
  0
VERTEX
  5
2B8
330
2B7
100
AcDbEntity
  8
PUMP_-_VISTA_LATO
 62
   250
100
AcDbVertex
100
AcDb2dVertex
 10
959.6250273266868
 20
-1174.814820592883
 30
0.0
  0
VERTEX
  5
2B9
330
2B7
100
AcDbEntity
  8
PUMP_-_VISTA_LATO
 62
   250
100
AcDbVertex
100
AcDb2dVertex
 10
959.6250273266868
 20
-1030.126639479226
 30
0.0
  0
SEQEND
  5
2BA
330
2B7
100
AcDbEntity
  8
PUMP_-_VISTA_LATO
 62
   250
  0
POLYLINE
  5
2BB
330
24C
100
AcDbEntity
  8
PUMP_-_VISTA_LATO
 62
   250
100
AcDb2dPolyline
 66
     1
 10
0.0
 20
0.0
 30
0.0
  0
VERTEX
  5
2BC
330
2BB
100
AcDbEntity
  8
PUMP_-_VISTA_LATO
 62
   250
100
AcDbVertex
100
AcDb2dVertex
 10
946.1646031653517
 20
-1181.388549758333
 30
0.0
  0
VERTEX
  5
2BD
330
2BB
100
AcDbEntity
  8
PUMP_-_VISTA_LATO
 62
   250
100
AcDbVertex
100
AcDb2dVertex
 10
956.7439762929813
 20
-1181.388549758333
 30
0.0
  0
SEQEND
  5
2BE
330
2BB
100
AcDbEntity
  8
PUMP_-_VISTA_LATO
 62
   250
  0
SPLINE
  5
2BF
330
24C
100
AcDbEntity
  8
PUMP_-_VISTA_LATO
 62
   250
100
AcDbSpline
210
0.0
220
0.0
230
1.0
 70
     8
 71
     3
 72
     8
 73
     4
 74
     0
 42
0.0000000001
 43
0.0000000001
 12
1.0
 22
0.0
 32
0.0
 13
1.0
 23
0.0
 33
0.0
 40
0.0
 40
0.0
 40
0.0
 40
0.0
 40
1.0
 40
1.0
 40
1.0
 40
1.0
 10
959.0941166610988
 20
-1176.655780249364
 30
0.0
 10
959.4409889819675
 20
-1176.104398941447
 30
0.0
 10
959.6250273266868
 20
-1175.466237105609
 30
0.0
 10
959.6250273266868
 20
-1174.814821912607
 30
0.0
  0
SPLINE
  5
2C0
330
24C
100
AcDbEntity
  8
PUMP_-_VISTA_LATO
 62
   250
100
AcDbSpline
210
0.0
220
0.0
230
1.0
 70
     8
 71
     3
 72
     8
 73
     4
 74
     0
 42
0.0000000001
 43
0.0000000001
 12
1.0
 22
0.0
 32
0.0
 13
1.0
 23
0.0
 33
0.0
 40
0.0
 40
0.0
 40
0.0
 40
0.0
 40
1.0
 40
1.0
 40
1.0
 40
1.0
 10
957.2748869585629
 20
-1179.547591421557
 30
0.0
 10
956.9280146377134
 20
-1180.09897272948
 30
0.0
 10
956.7439762929813
 20
-1180.737134565312
 30
0.0
 10
956.7439762929813
 20
-1181.388549758333
 30
0.0
  0
POLYLINE
  5
2C1
330
24C
100
AcDbEntity
  8
PUMP_-_VISTA_LATO
 62
   250
100
AcDb2dPolyline
 66
     1
 10
0.0
 20
0.0
 30
0.0
  0
VERTEX
  5
2C2
330
2C1
100
AcDbEntity
  8
PUMP_-_VISTA_LATO
 62
   250
100
AcDbVertex
100
AcDb2dVertex
 10
925.241120728958
 20
-1181.388549758333
 30
0.0
  0
VERTEX
  5
2C3
330
2C1
100
AcDbEntity
  8
PUMP_-_VISTA_LATO
 62
   250
100
AcDbVertex
100
AcDb2dVertex
 10
940.4025010979408
 20
-1181.388549758333
 30
0.0
  0
SEQEND
  5
2C4
330
2C1
100
AcDbEntity
  8
PUMP_-_VISTA_LATO
 62
   250
  0
POLYLINE
  5
2C5
330
24C
100
AcDbEntity
  8
PUMP_-_VISTA_LATO
 62
   250
100
AcDb2dPolyline
 66
     1
 10
0.0
 20
0.0
 30
0.0
  0
VERTEX
  5
2C6
330
2C5
100
AcDbEntity
  8
PUMP_-_VISTA_LATO
 62
   250
100
AcDbVertex
100
AcDb2dVertex
 10
959.6250273266868
 20
-1174.814821912607
 30
0.0
  0
VERTEX
  5
2C7
330
2C5
100
AcDbEntity
  8
PUMP_-_VISTA_LATO
 62
   250
100
AcDbVertex
100
AcDb2dVertex
 10
946.1646031653517
 20
-1174.814821912607
 30
0.0
  0
SEQEND
  5
2C8
330
2C5
100
AcDbEntity
  8
PUMP_-_VISTA_LATO
 62
   250
  0
POLYLINE
  5
2C9
330
24C
100
AcDbEntity
  8
PUMP_-_VISTA_LATO
 62
   250
100
AcDb2dPolyline
 66
     1
 10
0.0
 20
0.0
 30
0.0
  0
VERTEX
  5
2CA
330
2C9
100
AcDbEntity
  8
PUMP_-_VISTA_LATO
 62
   250
100
AcDbVertex
100
AcDb2dVertex
 10
957.2748869585629
 20
-1179.54759142157
 30
0.0
  0
VERTEX
  5
2CB
330
2C9
100
AcDbEntity
  8
PUMP_-_VISTA_LATO
 62
   250
100
AcDbVertex
100
AcDb2dVertex
 10
959.0941166610988
 20
-1176.655780249364
 30
0.0
  0
SEQEND
  5
2CC
330
2C9
100
AcDbEntity
  8
PUMP_-_VISTA_LATO
 62
   250
  0
POLYLINE
  5
2CD
330
24C
100
AcDbEntity
  8
PUMP_-_VISTA_LATO
 62
   250
100
AcDb2dPolyline
 66
     1
 10
0.0
 20
0.0
 30
0.0
  0
VERTEX
  5
2CE
330
2CD
100
AcDbEntity
  8
PUMP_-_VISTA_LATO
 62
   250
100
AcDbVertex
100
AcDb2dVertex
 10
940.4025010979408
 20
-1174.814821912607
 30
0.0
  0
VERTEX
  5
2CF
330
2CD
100
AcDbEntity
  8
PUMP_-_VISTA_LATO
 62
   250
100
AcDbVertex
100
AcDb2dVertex
 10
925.241120728958
 20
-1174.814821912607
 30
0.0
  0
SEQEND
  5
2D0
330
2CD
100
AcDbEntity
  8
PUMP_-_VISTA_LATO
 62
   250
  0
SPLINE
  5
2D1
330
24C
100
AcDbEntity
  8
PUMP_-_VISTA_LATO
 62
   250
100
AcDbSpline
210
0.0
220
0.0
230
1.0
 70
     8
 71
     3
 72
     8
 73
     4
 74
     0
 42
0.0000000001
 43
0.0000000001
 12
1.0
 22
0.0
 32
0.0
 13
1.0
 23
0.0
 33
0.0
 40
0.0
 40
0.0
 40
0.0
 40
0.0
 40
1.0
 40
1.0
 40
1.0
 40
1.0
 10
827.0966797761132
 20
-1174.814821912607
 30
0.0
 10
827.0966797761132
 20
-1175.466237105609
 30
0.0
 10
827.2807181208453
 20
-1176.104398941447
 30
0.0
 10
827.6275904416948
 20
-1176.655780249364
 30
0.0
  0
SPLINE
  5
2D2
330
24C
100
AcDbEntity
  8
PUMP_-_VISTA_LATO
 62
   250
100
AcDbSpline
210
0.0
220
0.0
230
1.0
 70
     8
 71
     3
 72
     8
 73
     4
 74
     0
 42
0.0000000001
 43
0.0000000001
 12
1.0
 22
0.0
 32
0.0
 13
1.0
 23
0.0
 33
0.0
 40
0.0
 40
0.0
 40
0.0
 40
0.0
 40
1.0
 40
1.0
 40
1.0
 40
1.0
 10
828.4170669757663
 20
-1199.982663432904
 30
0.0
 10
829.4093029662954
 20
-1199.107593541965
 30
0.0
 10
829.9777308098187
 20
-1197.84838351317
 30
0.0
 10
829.9777308098187
 20
-1196.525402192454
 30
0.0
  0
POLYLINE
  5
2D3
330
24C
100
AcDbEntity
  8
PUMP_-_VISTA_LATO
 62
   250
100
AcDb2dPolyline
 66
     1
 10
0.0
 20
0.0
 30
0.0
  0
VERTEX
  5
2D4
330
2D3
100
AcDbEntity
  8
PUMP_-_VISTA_LATO
 62
   250
100
AcDbVertex
100
AcDb2dVertex
 10
919.4790186615343
 20
-1174.814821912607
 30
0.0
  0
VERTEX
  5
2D5
330
2D3
100
AcDbEntity
  8
PUMP_-_VISTA_LATO
 62
   250
100
AcDbVertex
100
AcDb2dVertex
 10
896.2419045851022
 20
-1174.814821912607
 30
0.0
  0
SEQEND
  5
2D6
330
2D3
100
AcDbEntity
  8
PUMP_-_VISTA_LATO
 62
   250
  0
POLYLINE
  5
2D7
330
24C
100
AcDbEntity
  8
PUMP_-_VISTA_LATO
 62
   250
100
AcDb2dPolyline
 66
     1
 10
0.0
 20
0.0
 30
0.0
  0
VERTEX
  5
2D8
330
2D7
100
AcDbEntity
  8
PUMP_-_VISTA_LATO
 62
   250
100
AcDbVertex
100
AcDb2dVertex
 10
896.2419045851022
 20
-1181.388549758333
 30
0.0
  0
VERTEX
  5
2D9
330
2D7
100
AcDbEntity
  8
PUMP_-_VISTA_LATO
 62
   250
100
AcDbVertex
100
AcDb2dVertex
 10
919.4790186615343
 20
-1181.388549758333
 30
0.0
  0
SEQEND
  5
2DA
330
2D7
100
AcDbEntity
  8
PUMP_-_VISTA_LATO
 62
   250
  0
POLYLINE
  5
2DB
330
24C
100
AcDbEntity
  8
PUMP_-_VISTA_LATO
 62
   250
100
AcDb2dPolyline
 66
     1
 10
0.0
 20
0.0
 30
0.0
  0
VERTEX
  5
2DC
330
2DB
100
AcDbEntity
  8
PUMP_-_VISTA_LATO
 62
   250
100
AcDbVertex
100
AcDb2dVertex
 10
896.2419045851022
 20
-1030.126639479226
 30
0.0
  0
VERTEX
  5
2DD
330
2DB
100
AcDbEntity
  8
PUMP_-_VISTA_LATO
 62
   250
100
AcDbVertex
100
AcDb2dVertex
 10
919.4790186615343
 20
-1030.126639479226
 30
0.0
  0
SEQEND
  5
2DE
330
2DB
100
AcDbEntity
  8
PUMP_-_VISTA_LATO
 62
   250
  0
POLYLINE
  5
2DF
330
24C
100
AcDbEntity
  8
PUMP_-_VISTA_LATO
 62
   250
100
AcDb2dPolyline
 66
     1
 10
0.0
 20
0.0
 30
0.0
  0
VERTEX
  5
2E0
330
2DF
100
AcDbEntity
  8
PUMP_-_VISTA_LATO
 62
   250
100
AcDbVertex
100
AcDb2dVertex
 10
829.9777308098187
 20
-1181.388549758333
 30
0.0
  0
VERTEX
  5
2E1
330
2DF
100
AcDbEntity
  8
PUMP_-_VISTA_LATO
 62
   250
100
AcDbVertex
100
AcDb2dVertex
 10
846.3192060048656
 20
-1181.388549758333
 30
0.0
  0
SEQEND
  5
2E2
330
2DF
100
AcDbEntity
  8
PUMP_-_VISTA_LATO
 62
   250
  0
POLYLINE
  5
2E3
330
24C
100
AcDbEntity
  8
PUMP_-_VISTA_LATO
 62
   250
100
AcDb2dPolyline
 66
     1
 10
0.0
 20
0.0
 30
0.0
  0
VERTEX
  5
2E4
330
2E3
100
AcDbEntity
  8
PUMP_-_VISTA_LATO
 62
   250
100
AcDbVertex
100
AcDb2dVertex
 10
829.4468201442371
 20
-1179.54759142157
 30
0.0
  0
VERTEX
  5
2E5
330
2E3
100
AcDbEntity
  8
PUMP_-_VISTA_LATO
 62
   250
100
AcDbVertex
100
AcDb2dVertex
 10
827.6275904416948
 20
-1176.655780249364
 30
0.0
  0
SEQEND
  5
2E6
330
2E3
100
AcDbEntity
  8
PUMP_-_VISTA_LATO
 62
   250
  0
POLYLINE
  5
2E7
330
24C
100
AcDbEntity
  8
PUMP_-_VISTA_LATO
 62
   250
100
AcDb2dPolyline
 66
     1
 10
0.0
 20
0.0
 30
0.0
  0
VERTEX
  5
2E8
330
2E7
100
AcDbEntity
  8
PUMP_-_VISTA_LATO
 62
   250
100
AcDbVertex
100
AcDb2dVertex
 10
846.3192060048656
 20
-1174.814821912607
 30
0.0
  0
VERTEX
  5
2E9
330
2E7
100
AcDbEntity
  8
PUMP_-_VISTA_LATO
 62
   250
100
AcDbVertex
100
AcDb2dVertex
 10
827.0966797761132
 20
-1174.814821912607
 30
0.0
  0
SEQEND
  5
2EA
330
2E7
100
AcDbEntity
  8
PUMP_-_VISTA_LATO
 62
   250
  0
SPLINE
  5
2EB
330
24C
100
AcDbEntity
  8
PUMP_-_VISTA_LATO
 62
   250
100
AcDbSpline
210
0.0
220
0.0
230
1.0
 70
     8
 71
     3
 72
     8
 73
     4
 74
     0
 42
0.0000000001
 43
0.0000000001
 12
1.0
 22
0.0
 32
0.0
 13
1.0
 23
0.0
 33
0.0
 40
0.0
 40
0.0
 40
0.0
 40
0.0
 40
1.0
 40
1.0
 40
1.0
 40
1.0
 10
829.9777308098187
 20
-1181.388549758333
 30
0.0
 10
829.9777308098187
 20
-1180.737134565312
 30
0.0
 10
829.7936924650994
 20
-1180.09897272948
 30
0.0
 10
829.4468201442371
 20
-1179.547591421557
 30
0.0
  0
POLYLINE
  5
2EC
330
24C
100
AcDbEntity
  8
PUMP_-_VISTA_LATO
 62
   250
100
AcDb2dPolyline
 66
     1
 10
0.0
 20
0.0
 30
0.0
  0
VERTEX
  5
2ED
330
2EC
100
AcDbEntity
  8
PUMP_-_VISTA_LATO
 62
   250
100
AcDbVertex
100
AcDb2dVertex
 10
827.0966797761132
 20
-1174.814820592883
 30
0.0
  0
VERTEX
  5
2EE
330
2EC
100
AcDbEntity
  8
PUMP_-_VISTA_LATO
 62
   250
100
AcDbVertex
100
AcDb2dVertex
 10
827.0966797761132
 20
-1030.126639479226
 30
0.0
  0
SEQEND
  5
2EF
330
2EC
100
AcDbEntity
  8
PUMP_-_VISTA_LATO
 62
   250
  0
POLYLINE
  5
2F0
330
24C
100
AcDbEntity
  8
PUMP_-_VISTA_LATO
 62
   250
100
AcDb2dPolyline
 66
     1
 10
0.0
 20
0.0
 30
0.0
  0
VERTEX
  5
2F1
330
2F0
100
AcDbEntity
  8
PUMP_-_VISTA_LATO
 62
   250
100
AcDbVertex
100
AcDb2dVertex
 10
867.2426884412465
 20
-1174.814821912607
 30
0.0
  0
VERTEX
  5
2F2
330
2F0
100
AcDbEntity
  8
PUMP_-_VISTA_LATO
 62
   250
100
AcDbVertex
100
AcDb2dVertex
 10
852.0813080722734
 20
-1174.814821912607
 30
0.0
  0
SEQEND
  5
2F3
330
2F0
100
AcDbEntity
  8
PUMP_-_VISTA_LATO
 62
   250
  0
POLYLINE
  5
2F4
330
24C
100
AcDbEntity
  8
PUMP_-_VISTA_LATO
 62
   250
100
AcDb2dPolyline
 66
     1
 10
0.0
 20
0.0
 30
0.0
  0
VERTEX
  5
2F5
330
2F4
100
AcDbEntity
  8
PUMP_-_VISTA_LATO
 62
   250
100
AcDbVertex
100
AcDb2dVertex
 10
852.0813080722734
 20
-1181.388549758333
 30
0.0
  0
VERTEX
  5
2F6
330
2F4
100
AcDbEntity
  8
PUMP_-_VISTA_LATO
 62
   250
100
AcDbVertex
100
AcDb2dVertex
 10
867.2426884412465
 20
-1181.388549758333
 30
0.0
  0
SEQEND
  5
2F7
330
2F4
100
AcDbEntity
  8
PUMP_-_VISTA_LATO
 62
   250
  0
SPLINE
  5
2F8
330
24C
100
AcDbEntity
  8
PUMP_-_VISTA_LATO
 62
   250
100
AcDbSpline
210
0.0
220
0.0
230
1.0
 70
     8
 71
     3
 72
     8
 73
     4
 74
     0
 42
0.0000000001
 43
0.0000000001
 12
1.0
 22
0.0
 32
0.0
 13
1.0
 23
0.0
 33
0.0
 40
0.0
 40
0.0
 40
0.0
 40
0.0
 40
1.0
 40
1.0
 40
1.0
 40
1.0
 10
956.7439762929813
 20
-1196.525402192454
 30
0.0
 10
956.7439762929813
 20
-1197.84838351317
 30
0.0
 10
957.3124041365046
 20
-1199.107593541965
 30
0.0
 10
958.3046401270466
 20
-1199.982663432904
 30
0.0
  0
ENDBLK
  5
24F
330
24C
100
AcDbEntity
  8
0
100
AcDbBlockEnd
  0
BLOCK
  5
259
330
257
100
AcDbEntity
  8
0
100
AcDbBlockBegin
  2
BLOCK_21
 70
     0
 10
0.0
 20
0.0
 30
0.0
  3
BLOCK_21
  1

  0
POLYLINE
  5
25B
330
257
100
AcDbEntity
  8
PUMP_-_VISTA_LATO
 62
   250
100
AcDb2dPolyline
 66
     1
 10
0.0
 20
0.0
 30
0.0
  0
VERTEX
  5
25C
330
25B
100
AcDbEntity
  8
PUMP_-_VISTA_LATO
 62
   250
100
AcDbVertex
100
AcDb2dVertex
 10
814.420054306944
 20
-1208.452285666383
 30
0.0
  0
VERTEX
  5
25D
330
25B
100
AcDbEntity
  8
PUMP_-_VISTA_LATO
 62
   250
100
AcDbVertex
100
AcDb2dVertex
 10
814.6076536133603
 20
-1199.982663432904
 30
0.0
  0
VERTEX
  5
25E
330
25B
100
AcDbEntity
  8
PUMP_-_VISTA_LATO
 62
   250
100
AcDbVertex
100
AcDb2dVertex
 10
972.1140436442043
 20
-1200.385514643624
 30
0.0
  0
SEQEND
  5
25F
330
25B
100
AcDbEntity
  8
PUMP_-_VISTA_LATO
 62
   250
  0
ENDBLK
  5
25A
330
257
100
AcDbEntity
  8
0
100
AcDbBlockEnd
  0
BLOCK
  5
262
330
260
100
AcDbEntity
  8
0
100
AcDbBlockBegin
  2
BLOCK_22
 70
     0
 10
0.0
 20
0.0
 30
0.0
  3
BLOCK_22
  1

  0
POLYLINE
  5
264
330
260
100
AcDbEntity
  8
PUMP_-_VISTA_LATO
 62
   250
100
AcDb2dPolyline
 66
     1
 10
0.0
 20
0.0
 30
0.0
  0
VERTEX
  5
265
330
264
100
AcDbEntity
  8
PUMP_-_VISTA_LATO
 62
   250
100
AcDbVertex
100
AcDb2dVertex
 10
972.1140436442043
 20
-1200.385514643624
 30
0.0
  0
VERTEX
  5
266
330
264
100
AcDbEntity
  8
PUMP_-_VISTA_LATO
 62
   250
100
AcDbVertex
100
AcDb2dVertex
 10
972.3016469523841
 20
-1208.452457742492
 30
0.0
  0
VERTEX
  5
267
330
264
100
AcDbEntity
  8
PUMP_-_VISTA_LATO
 62
   250
100
AcDbVertex
100
AcDb2dVertex
 10
814.420054306944
 20
-1208.452285666383
 30
0.0
  0
SEQEND
  5
268
330
264
100
AcDbEntity
  8
PUMP_-_VISTA_LATO
 62
   250
  0
ENDBLK
  5
263
330
260
100
AcDbEntity
  8
0
100
AcDbBlockEnd
  0
BLOCK
  5
2FB
330
2F9
100
AcDbEntity
  8
0
100
AcDbBlockBegin
  2
BLOCK_23
 70
     0
 10
0.0
 20
0.0
 30
0.0
  3
BLOCK_23
  1

  0
INSERT
  5
2FE
330
2F9
100
AcDbEntity
  8
PUMP_-_VISTA_LATO
100
AcDbBlockReference
  2
BLOCK_24
 10
0.0
 20
0.0
 30
0.0
  0
ENDBLK
  5
2FC
330
2F9
100
AcDbEntity
  8
0
100
AcDbBlockEnd
  0
BLOCK
  5
2FF
330
2FD
100
AcDbEntity
  8
0
100
AcDbBlockBegin
  2
BLOCK_24
 70
     0
 10
0.0
 20
0.0
 30
0.0
  3
BLOCK_24
  1

  0
INSERT
  5
302
330
2FD
100
AcDbEntity
  8
PUMP_-_VISTA_LATO
100
AcDbBlockReference
  2
BLOCK_25
 10
0.0
 20
0.0
 30
0.0
  0
INSERT
  5
30A
330
2FD
100
AcDbEntity
  8
PUMP_-_VISTA_LATO
100
AcDbBlockReference
  2
BLOCK_26
 10
0.0
 20
0.0
 30
0.0
  0
INSERT
  5
312
330
2FD
100
AcDbEntity
  8
PUMP_-_VISTA_LATO
100
AcDbBlockReference
  2
BLOCK_27
 10
0.0
 20
0.0
 30
0.0
  0
INSERT
  5
317
330
2FD
100
AcDbEntity
  8
PUMP_-_VISTA_LATO
100
AcDbBlockReference
  2
BLOCK_28
 10
0.0
 20
0.0
 30
0.0
  0
INSERT
  5
31F
330
2FD
100
AcDbEntity
  8
PUMP_-_VISTA_LATO
100
AcDbBlockReference
  2
BLOCK_29
 10
0.0
 20
0.0
 30
0.0
  0
INSERT
  5
327
330
2FD
100
AcDbEntity
  8
PUMP_-_VISTA_LATO
100
AcDbBlockReference
  2
BLOCK_30
 10
0.0
 20
0.0
 30
0.0
  0
INSERT
  5
32C
330
2FD
100
AcDbEntity
  8
PUMP_-_VISTA_LATO
100
AcDbBlockReference
  2
BLOCK_31
 10
0.0
 20
0.0
 30
0.0
  0
INSERT
  5
331
330
2FD
100
AcDbEntity
  8
PUMP_-_VISTA_LATO
100
AcDbBlockReference
  2
BLOCK_32
 10
0.0
 20
0.0
 30
0.0
  0
INSERT
  5
339
330
2FD
100
AcDbEntity
  8
PUMP_-_VISTA_LATO
100
AcDbBlockReference
  2
BLOCK_33
 10
0.0
 20
0.0
 30
0.0
  0
INSERT
  5
33E
330
2FD
100
AcDbEntity
  8
PUMP_-_VISTA_LATO
100
AcDbBlockReference
  2
BLOCK_34
 10
0.0
 20
0.0
 30
0.0
  0
INSERT
  5
343
330
2FD
100
AcDbEntity
  8
PUMP_-_VISTA_LATO
100
AcDbBlockReference
  2
BLOCK_35
 10
0.0
 20
0.0
 30
0.0
  0
INSERT
  5
348
330
2FD
100
AcDbEntity
  8
PUMP_-_VISTA_LATO
100
AcDbBlockReference
  2
BLOCK_36
 10
0.0
 20
0.0
 30
0.0
  0
INSERT
  5
34D
330
2FD
100
AcDbEntity
  8
PUMP_-_VISTA_LATO
100
AcDbBlockReference
  2
BLOCK_37
 10
0.0
 20
0.0
 30
0.0
  0
INSERT
  5
352
330
2FD
100
AcDbEntity
  8
PUMP_-_VISTA_LATO
100
AcDbBlockReference
  2
BLOCK_38
 10
0.0
 20
0.0
 30
0.0
  0
INSERT
  5
35A
330
2FD
100
AcDbEntity
  8
PUMP_-_VISTA_LATO
100
AcDbBlockReference
  2
BLOCK_39
 10
0.0
 20
0.0
 30
0.0
  0
INSERT
  5
35F
330
2FD
100
AcDbEntity
  8
PUMP_-_VISTA_LATO
100
AcDbBlockReference
  2
BLOCK_40
 10
0.0
 20
0.0
 30
0.0
  0
INSERT
  5
364
330
2FD
100
AcDbEntity
  8
PUMP_-_VISTA_LATO
100
AcDbBlockReference
  2
BLOCK_41
 10
0.0
 20
0.0
 30
0.0
  0
INSERT
  5
36C
330
2FD
100
AcDbEntity
  8
PUMP_-_VISTA_LATO
100
AcDbBlockReference
  2
BLOCK_42
 10
0.0
 20
0.0
 30
0.0
  0
INSERT
  5
371
330
2FD
100
AcDbEntity
  8
PUMP_-_VISTA_LATO
100
AcDbBlockReference
  2
BLOCK_43
 10
0.0
 20
0.0
 30
0.0
  0
INSERT
  5
376
330
2FD
100
AcDbEntity
  8
PUMP_-_VISTA_LATO
100
AcDbBlockReference
  2
BLOCK_44
 10
0.0
 20
0.0
 30
0.0
  0
INSERT
  5
37B
330
2FD
100
AcDbEntity
  8
PUMP_-_VISTA_LATO
100
AcDbBlockReference
  2
BLOCK_45
 10
0.0
 20
0.0
 30
0.0
  0
INSERT
  5
380
330
2FD
100
AcDbEntity
  8
PUMP_-_VISTA_LATO
100
AcDbBlockReference
  2
BLOCK_46
 10
0.0
 20
0.0
 30
0.0
  0
INSERT
  5
388
330
2FD
100
AcDbEntity
  8
PUMP_-_VISTA_LATO
100
AcDbBlockReference
  2
BLOCK_47
 10
0.0
 20
0.0
 30
0.0
  0
INSERT
  5
38D
330
2FD
100
AcDbEntity
  8
PUMP_-_VISTA_LATO
100
AcDbBlockReference
  2
BLOCK_48
 10
0.0
 20
0.0
 30
0.0
  0
INSERT
  5
395
330
2FD
100
AcDbEntity
  8
PUMP_-_VISTA_LATO
100
AcDbBlockReference
  2
BLOCK_49
 10
0.0
 20
0.0
 30
0.0
  0
INSERT
  5
39D
330
2FD
100
AcDbEntity
  8
PUMP_-_VISTA_LATO
100
AcDbBlockReference
  2
BLOCK_50
 10
0.0
 20
0.0
 30
0.0
  0
INSERT
  5
3A5
330
2FD
100
AcDbEntity
  8
PUMP_-_VISTA_LATO
100
AcDbBlockReference
  2
BLOCK_51
 10
0.0
 20
0.0
 30
0.0
  0
INSERT
  5
3AD
330
2FD
100
AcDbEntity
  8
PUMP_-_VISTA_LATO
100
AcDbBlockReference
  2
BLOCK_52
 10
0.0
 20
0.0
 30
0.0
  0
INSERT
  5
3B2
330
2FD
100
AcDbEntity
  8
PUMP_-_VISTA_LATO
100
AcDbBlockReference
  2
BLOCK_53
 10
0.0
 20
0.0
 30
0.0
  0
INSERT
  5
3BA
330
2FD
100
AcDbEntity
  8
PUMP_-_VISTA_LATO
100
AcDbBlockReference
  2
BLOCK_54
 10
0.0
 20
0.0
 30
0.0
  0
INSERT
  5
3C2
330
2FD
100
AcDbEntity
  8
PUMP_-_VISTA_LATO
100
AcDbBlockReference
  2
BLOCK_55
 10
0.0
 20
0.0
 30
0.0
  0
INSERT
  5
3CA
330
2FD
100
AcDbEntity
  8
PUMP_-_VISTA_LATO
100
AcDbBlockReference
  2
BLOCK_56
 10
0.0
 20
0.0
 30
0.0
  0
INSERT
  5
3D2
330
2FD
100
AcDbEntity
  8
PUMP_-_VISTA_LATO
100
AcDbBlockReference
  2
BLOCK_57
 10
0.0
 20
0.0
 30
0.0
  0
INSERT
  5
3DA
330
2FD
100
AcDbEntity
  8
PUMP_-_VISTA_LATO
100
AcDbBlockReference
  2
BLOCK_58
 10
0.0
 20
0.0
 30
0.0
  0
INSERT
  5
3E2
330
2FD
100
AcDbEntity
  8
PUMP_-_VISTA_LATO
100
AcDbBlockReference
  2
BLOCK_59
 10
0.0
 20
0.0
 30
0.0
  0
INSERT
  5
3EA
330
2FD
100
AcDbEntity
  8
PUMP_-_VISTA_LATO
100
AcDbBlockReference
  2
BLOCK_60
 10
0.0
 20
0.0
 30
0.0
  0
INSERT
  5
3F2
330
2FD
100
AcDbEntity
  8
PUMP_-_VISTA_LATO
100
AcDbBlockReference
  2
BLOCK_61
 10
0.0
 20
0.0
 30
0.0
  0
INSERT
  5
3FA
330
2FD
100
AcDbEntity
  8
PUMP_-_VISTA_LATO
100
AcDbBlockReference
  2
BLOCK_62
 10
0.0
 20
0.0
 30
0.0
  0
INSERT
  5
3FF
330
2FD
100
AcDbEntity
  8
PUMP_-_VISTA_LATO
100
AcDbBlockReference
  2
BLOCK_63
 10
0.0
 20
0.0
 30
0.0
  0
INSERT
  5
404
330
2FD
100
AcDbEntity
  8
PUMP_-_VISTA_LATO
100
AcDbBlockReference
  2
BLOCK_64
 10
0.0
 20
0.0
 30
0.0
  0
INSERT
  5
40C
330
2FD
100
AcDbEntity
  8
PUMP_-_VISTA_LATO
100
AcDbBlockReference
  2
BLOCK_65
 10
0.0
 20
0.0
 30
0.0
  0
INSERT
  5
414
330
2FD
100
AcDbEntity
  8
PUMP_-_VISTA_LATO
100
AcDbBlockReference
  2
BLOCK_66
 10
0.0
 20
0.0
 30
0.0
  0
INSERT
  5
419
330
2FD
100
AcDbEntity
  8
PUMP_-_VISTA_LATO
100
AcDbBlockReference
  2
BLOCK_67
 10
0.0
 20
0.0
 30
0.0
  0
INSERT
  5
421
330
2FD
100
AcDbEntity
  8
PUMP_-_VISTA_LATO
100
AcDbBlockReference
  2
BLOCK_68
 10
0.0
 20
0.0
 30
0.0
  0
INSERT
  5
429
330
2FD
100
AcDbEntity
  8
PUMP_-_VISTA_LATO
100
AcDbBlockReference
  2
BLOCK_69
 10
0.0
 20
0.0
 30
0.0
  0
INSERT
  5
42E
330
2FD
100
AcDbEntity
  8
PUMP_-_VISTA_LATO
100
AcDbBlockReference
  2
BLOCK_70
 10
0.0
 20
0.0
 30
0.0
  0
INSERT
  5
436
330
2FD
100
AcDbEntity
  8
PUMP_-_VISTA_LATO
100
AcDbBlockReference
  2
BLOCK_71
 10
0.0
 20
0.0
 30
0.0
  0
INSERT
  5
43E
330
2FD
100
AcDbEntity
  8
PUMP_-_VISTA_LATO
100
AcDbBlockReference
  2
BLOCK_72
 10
0.0
 20
0.0
 30
0.0
  0
INSERT
  5
443
330
2FD
100
AcDbEntity
  8
PUMP_-_VISTA_LATO
100
AcDbBlockReference
  2
BLOCK_73
 10
0.0
 20
0.0
 30
0.0
  0
INSERT
  5
44B
330
2FD
100
AcDbEntity
  8
PUMP_-_VISTA_LATO
100
AcDbBlockReference
  2
BLOCK_74
 10
0.0
 20
0.0
 30
0.0
  0
INSERT
  5
453
330
2FD
100
AcDbEntity
  8
PUMP_-_VISTA_LATO
100
AcDbBlockReference
  2
BLOCK_75
 10
0.0
 20
0.0
 30
0.0
  0
INSERT
  5
45B
330
2FD
100
AcDbEntity
  8
PUMP_-_VISTA_LATO
100
AcDbBlockReference
  2
BLOCK_76
 10
0.0
 20
0.0
 30
0.0
  0
INSERT
  5
463
330
2FD
100
AcDbEntity
  8
PUMP_-_VISTA_LATO
100
AcDbBlockReference
  2
BLOCK_77
 10
0.0
 20
0.0
 30
0.0
  0
INSERT
  5
46B
330
2FD
100
AcDbEntity
  8
PUMP_-_VISTA_LATO
100
AcDbBlockReference
  2
BLOCK_78
 10
0.0
 20
0.0
 30
0.0
  0
INSERT
  5
473
330
2FD
100
AcDbEntity
  8
PUMP_-_VISTA_LATO
100
AcDbBlockReference
  2
BLOCK_79
 10
0.0
 20
0.0
 30
0.0
  0
INSERT
  5
47B
330
2FD
100
AcDbEntity
  8
PUMP_-_VISTA_LATO
100
AcDbBlockReference
  2
BLOCK_80
 10
0.0
 20
0.0
 30
0.0
  0
INSERT
  5
483
330
2FD
100
AcDbEntity
  8
PUMP_-_VISTA_LATO
100
AcDbBlockReference
  2
BLOCK_81
 10
0.0
 20
0.0
 30
0.0
  0
INSERT
  5
48B
330
2FD
100
AcDbEntity
  8
PUMP_-_VISTA_LATO
100
AcDbBlockReference
  2
BLOCK_82
 10
0.0
 20
0.0
 30
0.0
  0
INSERT
  5
493
330
2FD
100
AcDbEntity
  8
PUMP_-_VISTA_LATO
100
AcDbBlockReference
  2
BLOCK_83
 10
0.0
 20
0.0
 30
0.0
  0
ENDBLK
  5
300
330
2FD
100
AcDbEntity
  8
0
100
AcDbBlockEnd
  0
BLOCK
  5
303
330
301
100
AcDbEntity
  8
0
100
AcDbBlockBegin
  2
BLOCK_25
 70
     0
 10
0.0
 20
0.0
 30
0.0
  3
BLOCK_25
  1

  0
POLYLINE
  5
305
330
301
100
AcDbEntity
  8
PUMP_-_VISTA_LATO
 62
   250
100
AcDb2dPolyline
 66
     1
 10
0.0
 20
0.0
 30
0.0
  0
VERTEX
  5
306
330
305
100
AcDbEntity
  8
PUMP_-_VISTA_LATO
 62
   250
100
AcDbVertex
100
AcDb2dVertex
 10
846.6508148556151
 20
-917.6450831802737
 30
0.0
  0
VERTEX
  5
307
330
305
100
AcDbEntity
  8
PUMP_-_VISTA_LATO
 62
   250
100
AcDbVertex
100
AcDb2dVertex
 10
846.6508148556151
 20
-917.6450831802737
 30
0.0
  0
SEQEND
  5
308
330
305
100
AcDbEntity
  8
PUMP_-_VISTA_LATO
 62
   250
  0
ENDBLK
  5
304
330
301
100
AcDbEntity
  8
0
100
AcDbBlockEnd
  0
BLOCK
  5
30B
330
309
100
AcDbEntity
  8
0
100
AcDbBlockBegin
  2
BLOCK_26
 70
     0
 10
0.0
 20
0.0
 30
0.0
  3
BLOCK_26
  1

  0
POLYLINE
  5
30D
330
309
100
AcDbEntity
  8
PUMP_-_VISTA_LATO
 62
   250
100
AcDb2dPolyline
 66
     1
 10
0.0
 20
0.0
 30
0.0
  0
VERTEX
  5
30E
330
30D
100
AcDbEntity
  8
PUMP_-_VISTA_LATO
 62
   250
100
AcDbVertex
100
AcDb2dVertex
 10
846.6508148556151
 20
-917.6450831802737
 30
0.0
  0
VERTEX
  5
30F
330
30D
100
AcDbEntity
  8
PUMP_-_VISTA_LATO
 62
   250
100
AcDbVertex
100
AcDb2dVertex
 10
846.6508148556151
 20
-917.6450831802737
 30
0.0
  0
SEQEND
  5
310
330
30D
100
AcDbEntity
  8
PUMP_-_VISTA_LATO
 62
   250
  0
ENDBLK
  5
30C
330
309
100
AcDbEntity
  8
0
100
AcDbBlockEnd
  0
BLOCK
  5
313
330
311
100
AcDbEntity
  8
0
100
AcDbBlockBegin
  2
BLOCK_27
 70
     0
 10
0.0
 20
0.0
 30
0.0
  3
BLOCK_27
  1

  0
SPLINE
  5
315
330
311
100
AcDbEntity
  8
PUMP_-_VISTA_LATO
 62
   250
100
AcDbSpline
210
0.0
220
0.0
230
1.0
 70
     8
 71
     3
 72
     8
 73
     4
 74
     0
 42
0.0000000001
 43
0.0000000001
 12
1.0
 22
0.0
 32
0.0
 13
1.0
 23
0.0
 33
0.0
 40
0.0
 40
0.0
 40
0.0
 40
0.0
 40
1.0
 40
1.0
 40
1.0
 40
1.0
 10
950.1449613255753
 20
-929.2174243761357
 30
0.0
 10
950.035371812342
 20
-923.6686266021557
 30
0.0
 10
945.7491263171328
 20
-919.1005616261815
 30
0.0
 10
940.2185287083514
 20
-918.6383315020462
 30
0.0
  0
ENDBLK
  5
314
330
311
100
AcDbEntity
  8
0
100
AcDbBlockEnd
  0
BLOCK
  5
318
330
316
100
AcDbEntity
  8
0
100
AcDbBlockBegin
  2
BLOCK_28
 70
     0
 10
0.0
 20
0.0
 30
0.0
  3
BLOCK_28
  1

  0
POLYLINE
  5
31A
330
316
100
AcDbEntity
  8
PUMP_-_VISTA_LATO
 62
   250
100
AcDb2dPolyline
 66
     1
 10
0.0
 20
0.0
 30
0.0
  0
VERTEX
  5
31B
330
31A
100
AcDbEntity
  8
PUMP_-_VISTA_LATO
 62
   250
100
AcDbVertex
100
AcDb2dVertex
 10
913.4272774477223
 20
-917.6450831802737
 30
0.0
  0
VERTEX
  5
31C
330
31A
100
AcDbEntity
  8
PUMP_-_VISTA_LATO
 62
   250
100
AcDbVertex
100
AcDb2dVertex
 10
940.218528708345
 20
-917.6450831802737
 30
0.0
  0
SEQEND
  5
31D
330
31A
100
AcDbEntity
  8
PUMP_-_VISTA_LATO
 62
   250
  0
ENDBLK
  5
319
330
316
100
AcDbEntity
  8
0
100
AcDbBlockEnd
  0
BLOCK
  5
320
330
31E
100
AcDbEntity
  8
0
100
AcDbBlockBegin
  2
BLOCK_29
 70
     0
 10
0.0
 20
0.0
 30
0.0
  3
BLOCK_29
  1

  0
POLYLINE
  5
322
330
31E
100
AcDbEntity
  8
PUMP_-_VISTA_LATO
 62
   250
100
AcDb2dPolyline
 66
     1
 10
0.0
 20
0.0
 30
0.0
  0
VERTEX
  5
323
330
322
100
AcDbEntity
  8
PUMP_-_VISTA_LATO
 62
   250
100
AcDbVertex
100
AcDb2dVertex
 10
958.5654809144883
 20
-1003.561063012736
 30
0.0
  0
VERTEX
  5
324
330
322
100
AcDbEntity
  8
PUMP_-_VISTA_LATO
 62
   250
100
AcDbVertex
100
AcDb2dVertex
 10
968.92154423593
 20
-1003.561063012736
 30
0.0
  0
SEQEND
  5
325
330
322
100
AcDbEntity
  8
PUMP_-_VISTA_LATO
 62
   250
  0
ENDBLK
  5
321
330
31E
100
AcDbEntity
  8
0
100
AcDbBlockEnd
  0
BLOCK
  5
328
330
326
100
AcDbEntity
  8
0
100
AcDbBlockBegin
  2
BLOCK_30
 70
     0
 10
0.0
 20
0.0
 30
0.0
  3
BLOCK_30
  1

  0
SPLINE
  5
32A
330
326
100
AcDbEntity
  8
PUMP_-_VISTA_LATO
 62
   250
100
AcDbSpline
210
0.0
220
0.0
230
1.0
 70
     8
 71
     3
 72
     8
 73
     4
 74
     0
 42
0.0000000001
 43
0.0000000001
 12
1.0
 22
0.0
 32
0.0
 13
1.0
 23
0.0
 33
0.0
 40
0.0
 40
0.0
 40
0.0
 40
0.0
 40
1.0
 40
1.0
 40
1.0
 40
1.0
 10
952.6096213441526
 20
-999.7960529248813
 30
0.0
 10
952.7216622335053
 20
-1003.004484209944
 30
0.0
 10
955.3550939484178
 20
-1005.547559656274
 30
0.0
 10
958.5654809144883
 20
-1005.547559656274
 30
0.0
  0
ENDBLK
  5
329
330
326
100
AcDbEntity
  8
0
100
AcDbBlockEnd
  0
BLOCK
  5
32D
330
32B
100
AcDbEntity
  8
0
100
AcDbBlockBegin
  2
BLOCK_31
 70
     0
 10
0.0
 20
0.0
 30
0.0
  3
BLOCK_31
  1

  0
SPLINE
  5
32F
330
32B
100
AcDbEntity
  8
PUMP_-_VISTA_LATO
 62
   250
100
AcDbSpline
210
0.0
220
0.0
230
1.0
 70
     8
 71
     3
 72
     8
 73
     4
 74
     0
 42
0.0000000001
 43
0.0000000001
 12
1.0
 22
0.0
 32
0.0
 13
1.0
 23
0.0
 33
0.0
 40
0.0
 40
0.0
 40
0.0
 40
0.0
 40
1.0
 40
1.0
 40
1.0
 40
1.0
 10
967.3566031347146
 20
-1000.989804344586
 30
0.0
 10
967.1167604317787
 20
-1000.604342857723
 30
0.0
 10
966.7037417958979
 20
-1000.392282726267
 30
0.0
 10
966.280906261538
 20
-1000.391666465108
 30
0.0
  0
ENDBLK
  5
32E
330
32B
100
AcDbEntity
  8
0
100
AcDbBlockEnd
  0
BLOCK
  5
332
330
330
100
AcDbEntity
  8
0
100
AcDbBlockBegin
  2
BLOCK_32
 70
     0
 10
0.0
 20
0.0
 30
0.0
  3
BLOCK_32
  1

  0
POLYLINE
  5
334
330
330
100
AcDbEntity
  8
PUMP_-_VISTA_LATO
 62
   250
100
AcDb2dPolyline
 66
     1
 10
0.0
 20
0.0
 30
0.0
  0
VERTEX
  5
335
330
334
100
AcDbEntity
  8
PUMP_-_VISTA_LATO
 62
   250
100
AcDbVertex
100
AcDb2dVertex
 10
966.280262296884
 20
-1000.391837212463
 30
0.0
  0
VERTEX
  5
336
330
334
100
AcDbEntity
  8
PUMP_-_VISTA_LATO
 62
   250
100
AcDbVertex
100
AcDb2dVertex
 10
959.6428271302591
 20
-1000.391837212463
 30
0.0
  0
SEQEND
  5
337
330
334
100
AcDbEntity
  8
PUMP_-_VISTA_LATO
 62
   250
  0
ENDBLK
  5
333
330
330
100
AcDbEntity
  8
0
100
AcDbBlockEnd
  0
BLOCK
  5
33A
330
338
100
AcDbEntity
  8
0
100
AcDbBlockBegin
  2
BLOCK_33
 70
     0
 10
0.0
 20
0.0
 30
0.0
  3
BLOCK_33
  1

  0
SPLINE
  5
33C
330
338
100
AcDbEntity
  8
PUMP_-_VISTA_LATO
 62
   250
100
AcDbSpline
210
0.0
220
0.0
230
1.0
 70
     8
 71
     3
 72
     8
 73
     4
 74
     0
 42
0.0000000001
 43
0.0000000001
 12
1.0
 22
0.0
 32
0.0
 13
1.0
 23
0.0
 33
0.0
 40
0.0
 40
0.0
 40
0.0
 40
0.0
 40
1.0
 40
1.0
 40
1.0
 40
1.0
 10
952.1302478490098
 20
-929.148096643072
 30
0.0
 10
951.9061660703366
 20
-922.7312340729276
 30
0.0
 10
946.6393026404924
 20
-917.6450831802737
 30
0.0
 10
940.218528708345
 20
-917.6450831802737
 30
0.0
  0
ENDBLK
  5
33B
330
338
100
AcDbEntity
  8
0
100
AcDbBlockEnd
  0
BLOCK
  5
33F
330
33D
100
AcDbEntity
  8
0
100
AcDbBlockBegin
  2
BLOCK_34
 70
     0
 10
0.0
 20
0.0
 30
0.0
  3
BLOCK_34
  1

  0
SPLINE
  5
341
330
33D
100
AcDbEntity
  8
PUMP_-_VISTA_LATO
 62
   250
100
AcDbSpline
210
0.0
220
0.0
230
1.0
 70
     8
 71
     3
 72
    11
 73
     7
 74
     0
 42
0.0000000001
 43
0.0000000001
 12
1.0
 22
0.0
 32
0.0
 13
1.0
 23
0.0
 33
0.0
 40
0.0
 40
0.0
 40
0.0
 40
0.0
 40
1.0
 40
1.0
 40
1.0
 40
2.0
 40
2.0
 40
2.0
 40
2.0
 10
886.0846342009386
 20
-888.8126944804052
 30
0.0
 10
884.7825997712107
 20
-887.1752843038801
 30
0.0
 10
882.3997091017833
 20
-886.9034085433667
 30
0.0
 10
880.7622989252582
 20
-888.2054429730817
 30
0.0
 10
880.5696082905387
 20
-888.3586665479052
 30
0.0
 10
880.392314169426
 20
-888.5303103878614
 30
0.0
 10
880.2329321616569
 20
-888.7179390642266
 30
0.0
  0
ENDBLK
  5
340
330
33D
100
AcDbEntity
  8
0
100
AcDbBlockEnd
  0
BLOCK
  5
344
330
342
100
AcDbEntity
  8
0
100
AcDbBlockBegin
  2
BLOCK_35
 70
     0
 10
0.0
 20
0.0
 30
0.0
  3
BLOCK_35
  1

  0
SPLINE
  5
346
330
342
100
AcDbEntity
  8
PUMP_-_VISTA_LATO
 62
   250
100
AcDbSpline
210
0.0
220
0.0
230
1.0
 70
     8
 71
     3
 72
     8
 73
     4
 74
     0
 42
0.0000000001
 43
0.0000000001
 12
1.0
 22
0.0
 32
0.0
 13
1.0
 23
0.0
 33
0.0
 40
0.0
 40
0.0
 40
0.0
 40
0.0
 40
1.0
 40
1.0
 40
1.0
 40
1.0
 10
950.2323948858779
 20
-960.181441683428
 30
0.0
 10
950.1390274780882
 20
-957.5077489458587
 30
0.0
 10
947.9445010489902
 20
-955.3885194072567
 30
0.0
 10
945.2691785772691
 20
-955.3885194072567
 30
0.0
  0
ENDBLK
  5
345
330
342
100
AcDbEntity
  8
0
100
AcDbBlockEnd
  0
BLOCK
  5
349
330
347
100
AcDbEntity
  8
0
100
AcDbBlockBegin
  2
BLOCK_36
 70
     0
 10
0.0
 20
0.0
 30
0.0
  3
BLOCK_36
  1

  0
SPLINE
  5
34B
330
347
100
AcDbEntity
  8
PUMP_-_VISTA_LATO
 62
   250
100
AcDbSpline
210
0.0
220
0.0
230
1.0
 70
     8
 71
     3
 72
    11
 73
     7
 74
     0
 42
0.0000000001
 43
0.0000000001
 12
1.0
 22
0.0
 32
0.0
 13
1.0
 23
0.0
 33
0.0
 40
0.0
 40
0.0
 40
0.0
 40
0.0
 40
1.0
 40
1.0
 40
1.0
 40
2.0
 40
2.0
 40
2.0
 40
2.0
 10
880.3895978507505
 20
-888.8755724552201
 30
0.0
 10
878.9695102057187
 20
-887.359652960228
 30
0.0
 10
876.5894061532505
 20
-887.2819658962746
 30
0.0
 10
875.0734866582328
 20
-888.7020535413
 30
0.0
 10
875.0349699999246
 20
-888.7381352928488
 30
0.0
 10
874.9972170848697
 20
-888.7750237758078
 30
0.0
 10
874.9602529971994
 20
-888.8126944804052
 30
0.0
  0
ENDBLK
  5
34A
330
347
100
AcDbEntity
  8
0
100
AcDbBlockEnd
  0
BLOCK
  5
34E
330
34C
100
AcDbEntity
  8
0
100
AcDbBlockBegin
  2
BLOCK_37
 70
     0
 10
0.0
 20
0.0
 30
0.0
  3
BLOCK_37
  1

  0
SPLINE
  5
350
330
34C
100
AcDbEntity
  8
PUMP_-_VISTA_LATO
 62
   250
100
AcDbSpline
210
0.0
220
0.0
230
1.0
 70
     8
 71
     3
 72
    11
 73
     7
 74
     0
 42
0.0000000001
 43
0.0000000001
 12
1.0
 22
0.0
 32
0.0
 13
1.0
 23
0.0
 33
0.0
 40
0.0
 40
0.0
 40
0.0
 40
0.0
 40
1.0
 40
1.0
 40
1.0
 40
2.0
 40
2.0
 40
2.0
 40
2.0
 10
880.3895978507505
 20
-888.8755724552136
 30
0.0
 10
881.8479174862772
 20
-890.4323039521622
 30
0.0
 10
884.29209935525
 20
-890.5120825286328
 30
0.0
 10
885.8488308521921
 20
-889.0537628931127
 30
0.0
 10
885.9309041138957
 20
-888.9768780550207
 30
0.0
 10
886.0095801994166
 20
-888.8964452742531
 30
0.0
 10
886.084634200945
 20
-888.8126944804052
 30
0.0
  0
ENDBLK
  5
34F
330
34C
100
AcDbEntity
  8
0
100
AcDbBlockEnd
  0
BLOCK
  5
353
330
351
100
AcDbEntity
  8
0
100
AcDbBlockBegin
  2
BLOCK_38
 70
     0
 10
0.0
 20
0.0
 30
0.0
  3
BLOCK_38
  1

  0
POLYLINE
  5
355
330
351
100
AcDbEntity
  8
PUMP_-_VISTA_LATO
 62
   250
100
AcDb2dPolyline
 66
     1
 10
0.0
 20
0.0
 30
0.0
  0
VERTEX
  5
356
330
355
100
AcDbEntity
  8
PUMP_-_VISTA_LATO
 62
   250
100
AcDbVertex
100
AcDb2dVertex
 10
828.3028572715381
 20
-1003.561063012736
 30
0.0
  0
VERTEX
  5
357
330
355
100
AcDbEntity
  8
PUMP_-_VISTA_LATO
 62
   250
100
AcDbVertex
100
AcDb2dVertex
 10
828.3028572715381
 20
-1000.989804344586
 30
0.0
  0
SEQEND
  5
358
330
355
100
AcDbEntity
  8
PUMP_-_VISTA_LATO
 62
   250
  0
ENDBLK
  5
354
330
351
100
AcDbEntity
  8
0
100
AcDbBlockEnd
  0
BLOCK
  5
35B
330
359
100
AcDbEntity
  8
0
100
AcDbBlockBegin
  2
BLOCK_39
 70
     0
 10
0.0
 20
0.0
 30
0.0
  3
BLOCK_39
  1

  0
SPLINE
  5
35D
330
359
100
AcDbEntity
  8
PUMP_-_VISTA_LATO
 62
   250
100
AcDbSpline
210
0.0
220
0.0
230
1.0
 70
     8
 71
     3
 72
     8
 73
     4
 74
     0
 42
0.0000000001
 43
0.0000000001
 12
1.0
 22
0.0
 32
0.0
 13
1.0
 23
0.0
 33
0.0
 40
0.0
 40
0.0
 40
0.0
 40
0.0
 40
1.0
 40
1.0
 40
1.0
 40
1.0
 10
828.3038626494654
 20
-1003.561063012736
 30
0.0
 10
830.44412062685
 20
-1003.561063012736
 30
0.0
 10
832.1997417701432
 20
-1001.865679381855
 30
0.0
 10
832.2744356963601
 20
-999.7267251918176
 30
0.0
  0
ENDBLK
  5
35C
330
359
100
AcDbEntity
  8
0
100
AcDbBlockEnd
  0
BLOCK
  5
360
330
35E
100
AcDbEntity
  8
0
100
AcDbBlockBegin
  2
BLOCK_40
 70
     0
 10
0.0
 20
0.0
 30
0.0
  3
BLOCK_40
  1

  0
SPLINE
  5
362
330
35E
100
AcDbEntity
  8
PUMP_-_VISTA_LATO
 62
   250
100
AcDbSpline
210
0.0
220
0.0
230
1.0
 70
     8
 71
     3
 72
     8
 73
     4
 74
     0
 42
0.0000000001
 43
0.0000000001
 12
1.0
 22
0.0
 32
0.0
 13
1.0
 23
0.0
 33
0.0
 40
0.0
 40
0.0
 40
0.0
 40
0.0
 40
1.0
 40
1.0
 40
1.0
 40
1.0
 10
828.3028572715381
 20
-1000.989804344586
 30
0.0
 10
828.0630145685893
 20
-1000.604342857723
 30
0.0
 10
827.6499959327214
 20
-1000.392282726267
 30
0.0
 10
827.2271603983551
 20
-1000.391666465108
 30
0.0
  0
ENDBLK
  5
361
330
35E
100
AcDbEntity
  8
0
100
AcDbBlockEnd
  0
BLOCK
  5
365
330
363
100
AcDbEntity
  8
0
100
AcDbBlockBegin
  2
BLOCK_41
 70
     0
 10
0.0
 20
0.0
 30
0.0
  3
BLOCK_41
  1

  0
POLYLINE
  5
367
330
363
100
AcDbEntity
  8
PUMP_-_VISTA_LATO
 62
   250
100
AcDb2dPolyline
 66
     1
 10
0.0
 20
0.0
 30
0.0
  0
VERTEX
  5
368
330
367
100
AcDbEntity
  8
PUMP_-_VISTA_LATO
 62
   250
100
AcDbVertex
100
AcDb2dVertex
 10
835.153152450019
 20
-1002.671806290571
 30
0.0
  0
VERTEX
  5
369
330
367
100
AcDbEntity
  8
PUMP_-_VISTA_LATO
 62
   250
100
AcDbVertex
100
AcDb2dVertex
 10
836.6369486780886
 20
-960.1814416834216
 30
0.0
  0
SEQEND
  5
36A
330
367
100
AcDbEntity
  8
PUMP_-_VISTA_LATO
 62
   250
  0
ENDBLK
  5
366
330
363
100
AcDbEntity
  8
0
100
AcDbBlockEnd
  0
BLOCK
  5
36D
330
36B
100
AcDbEntity
  8
0
100
AcDbBlockBegin
  2
BLOCK_42
 70
     0
 10
0.0
 20
0.0
 30
0.0
  3
BLOCK_42
  1

  0
SPLINE
  5
36F
330
36B
100
AcDbEntity
  8
PUMP_-_VISTA_LATO
 62
   250
100
AcDbSpline
210
0.0
220
0.0
230
1.0
 70
     8
 71
     3
 72
     8
 73
     4
 74
     0
 42
0.0000000001
 43
0.0000000001
 12
1.0
 22
0.0
 32
0.0
 13
1.0
 23
0.0
 33
0.0
 40
0.0
 40
0.0
 40
0.0
 40
0.0
 40
1.0
 40
1.0
 40
1.0
 40
1.0
 10
828.3038626494654
 20
-1005.547559656274
 30
0.0
 10
831.5142496155295
 20
-1005.547559656274
 30
0.0
 10
834.1476813304612
 20
-1003.004484209944
 30
0.0
 10
834.2597222197946
 20
-999.7960529248813
 30
0.0
  0
ENDBLK
  5
36E
330
36B
100
AcDbEntity
  8
0
100
AcDbBlockEnd
  0
BLOCK
  5
372
330
370
100
AcDbEntity
  8
0
100
AcDbBlockBegin
  2
BLOCK_43
 70
     0
 10
0.0
 20
0.0
 30
0.0
  3
BLOCK_43
  1

  0
SPLINE
  5
374
330
370
100
AcDbEntity
  8
PUMP_-_VISTA_LATO
 62
   250
100
AcDbSpline
210
0.0
220
0.0
230
1.0
 70
     8
 71
     3
 72
     8
 73
     4
 74
     0
 42
0.0000000001
 43
0.0000000001
 12
1.0
 22
0.0
 32
0.0
 13
1.0
 23
0.0
 33
0.0
 40
0.0
 40
0.0
 40
0.0
 40
0.0
 40
1.0
 40
1.0
 40
1.0
 40
1.0
 10
832.1752226648576
 20
-1005.547559656274
 30
0.0
 10
833.7804161478864
 20
-1005.547559656274
 30
0.0
 10
835.0971320053491
 20
-1004.276021933103
 30
0.0
 10
835.1531524500255
 20
-1002.671806290571
 30
0.0
  0
ENDBLK
  5
373
330
370
100
AcDbEntity
  8
0
100
AcDbBlockEnd
  0
BLOCK
  5
377
330
375
100
AcDbEntity
  8
0
100
AcDbBlockBegin
  2
BLOCK_44
 70
     0
 10
0.0
 20
0.0
 30
0.0
  3
BLOCK_44
  1

  0
SPLINE
  5
379
330
375
100
AcDbEntity
  8
PUMP_-_VISTA_LATO
 62
   250
100
AcDbSpline
210
0.0
220
0.0
230
1.0
 70
     8
 71
     3
 72
     8
 73
     4
 74
     0
 42
0.0000000001
 43
0.0000000001
 12
1.0
 22
0.0
 32
0.0
 13
1.0
 23
0.0
 33
0.0
 40
0.0
 40
0.0
 40
0.0
 40
0.0
 40
1.0
 40
1.0
 40
1.0
 40
1.0
 10
846.6508148556151
 20
-917.6450831802737
 30
0.0
 10
840.2300409234741
 20
-917.6450831802737
 30
0.0
 10
834.9631774936236
 20
-922.7312340729276
 30
0.0
 10
834.7390957149502
 20
-929.148096643072
 30
0.0
  0
ENDBLK
  5
378
330
375
100
AcDbEntity
  8
0
100
AcDbBlockEnd
  0
BLOCK
  5
37C
330
37A
100
AcDbEntity
  8
0
100
AcDbBlockBegin
  2
BLOCK_45
 70
     0
 10
0.0
 20
0.0
 30
0.0
  3
BLOCK_45
  1

  0
SPLINE
  5
37E
330
37A
100
AcDbEntity
  8
PUMP_-_VISTA_LATO
 62
   250
100
AcDbSpline
210
0.0
220
0.0
230
1.0
 70
     8
 71
     3
 72
     8
 73
     4
 74
     0
 42
0.0000000001
 43
0.0000000001
 12
1.0
 22
0.0
 32
0.0
 13
1.0
 23
0.0
 33
0.0
 40
0.0
 40
0.0
 40
0.0
 40
0.0
 40
1.0
 40
1.0
 40
1.0
 40
1.0
 10
846.6508148556151
 20
-918.6383315020462
 30
0.0
 10
841.1202172468401
 20
-919.1005616261815
 30
0.0
 10
836.8339717516117
 20
-923.6686266021557
 30
0.0
 10
836.7243822383975
 20
-929.2174243761357
 30
0.0
  0
ENDBLK
  5
37D
330
37A
100
AcDbEntity
  8
0
100
AcDbBlockEnd
  0
BLOCK
  5
381
330
37F
100
AcDbEntity
  8
0
100
AcDbBlockBegin
  2
BLOCK_46
 70
     0
 10
0.0
 20
0.0
 30
0.0
  3
BLOCK_46
  1

  0
POLYLINE
  5
383
330
37F
100
AcDbEntity
  8
PUMP_-_VISTA_LATO
 62
   250
100
AcDb2dPolyline
 66
     1
 10
0.0
 20
0.0
 30
0.0
  0
VERTEX
  5
384
330
383
100
AcDbEntity
  8
PUMP_-_VISTA_LATO
 62
   250
100
AcDbVertex
100
AcDb2dVertex
 10
874.9602529971866
 20
-914.6653382149947
 30
0.0
  0
VERTEX
  5
385
330
383
100
AcDbEntity
  8
PUMP_-_VISTA_LATO
 62
   250
100
AcDbVertex
100
AcDb2dVertex
 10
886.0846342009386
 20
-914.6653382149947
 30
0.0
  0
SEQEND
  5
386
330
383
100
AcDbEntity
  8
PUMP_-_VISTA_LATO
 62
   250
  0
ENDBLK
  5
382
330
37F
100
AcDbEntity
  8
0
100
AcDbBlockEnd
  0
BLOCK
  5
389
330
387
100
AcDbEntity
  8
0
100
AcDbBlockBegin
  2
BLOCK_47
 70
     0
 10
0.0
 20
0.0
 30
0.0
  3
BLOCK_47
  1

  0
SPLINE
  5
38B
330
387
100
AcDbEntity
  8
PUMP_-_VISTA_LATO
 62
   250
100
AcDbSpline
210
0.0
220
0.0
230
1.0
 70
     8
 71
     3
 72
     8
 73
     4
 74
     0
 42
0.0000000001
 43
0.0000000001
 12
1.0
 22
0.0
 32
0.0
 13
1.0
 23
0.0
 33
0.0
 40
0.0
 40
0.0
 40
0.0
 40
0.0
 40
1.0
 40
1.0
 40
1.0
 40
1.0
 10
841.6001649866973
 20
-955.3885194072567
 30
0.0
 10
838.9248425149698
 20
-955.3885194072567
 30
0.0
 10
836.7303160858718
 20
-957.5077489458587
 30
0.0
 10
836.6369486780886
 20
-960.1814416834216
 30
0.0
  0
ENDBLK
  5
38A
330
387
100
AcDbEntity
  8
0
100
AcDbBlockEnd
  0
BLOCK
  5
38E
330
38C
100
AcDbEntity
  8
0
100
AcDbBlockBegin
  2
BLOCK_48
 70
     0
 10
0.0
 20
0.0
 30
0.0
  3
BLOCK_48
  1

  0
POLYLINE
  5
390
330
38C
100
AcDbEntity
  8
PUMP_-_VISTA_LATO
 62
   250
100
AcDb2dPolyline
 66
     1
 10
0.0
 20
0.0
 30
0.0
  0
VERTEX
  5
391
330
390
100
AcDbEntity
  8
PUMP_-_VISTA_LATO
 62
   250
100
AcDbVertex
100
AcDb2dVertex
 10
846.6508148556151
 20
-918.6383315020462
 30
0.0
  0
VERTEX
  5
392
330
390
100
AcDbEntity
  8
PUMP_-_VISTA_LATO
 62
   250
100
AcDbVertex
100
AcDb2dVertex
 10
899.1245016143471
 20
-918.6383315020462
 30
0.0
  0
SEQEND
  5
393
330
390
100
AcDbEntity
  8
PUMP_-_VISTA_LATO
 62
   250
  0
ENDBLK
  5
38F
330
38C
100
AcDbEntity
  8
0
100
AcDbBlockEnd
  0
BLOCK
  5
396
330
394
100
AcDbEntity
  8
0
100
AcDbBlockBegin
  2
BLOCK_49
 70
     0
 10
0.0
 20
0.0
 30
0.0
  3
BLOCK_49
  1

  0
POLYLINE
  5
398
330
394
100
AcDbEntity
  8
PUMP_-_VISTA_LATO
 62
   250
100
AcDb2dPolyline
 66
     1
 10
0.0
 20
0.0
 30
0.0
  0
VERTEX
  5
399
330
398
100
AcDbEntity
  8
PUMP_-_VISTA_LATO
 62
   250
100
AcDbVertex
100
AcDb2dVertex
 10
839.1124364606386
 20
-922.6444699354437
 30
0.0
  0
VERTEX
  5
39A
330
398
100
AcDbEntity
  8
PUMP_-_VISTA_LATO
 62
   250
100
AcDbVertex
100
AcDb2dVertex
 10
899.1245016143471
 20
-922.6444699354437
 30
0.0
  0
SEQEND
  5
39B
330
398
100
AcDbEntity
  8
PUMP_-_VISTA_LATO
 62
   250
  0
ENDBLK
  5
397
330
394
100
AcDbEntity
  8
0
100
AcDbBlockEnd
  0
BLOCK
  5
39E
330
39C
100
AcDbEntity
  8
0
100
AcDbBlockBegin
  2
BLOCK_50
 70
     0
 10
0.0
 20
0.0
 30
0.0
  3
BLOCK_50
  1

  0
POLYLINE
  5
3A0
330
39C
100
AcDbEntity
  8
PUMP_-_VISTA_LATO
 62
   250
100
AcDb2dPolyline
 66
     1
 10
0.0
 20
0.0
 30
0.0
  0
VERTEX
  5
3A1
330
3A0
100
AcDbEntity
  8
PUMP_-_VISTA_LATO
 62
   250
100
AcDbVertex
100
AcDb2dVertex
 10
828.3131777835343
 20
-1003.561063012736
 30
0.0
  0
VERTEX
  5
3A2
330
3A0
100
AcDbEntity
  8
PUMP_-_VISTA_LATO
 62
   250
100
AcDbVertex
100
AcDb2dVertex
 10
817.9477993280301
 20
-1003.561063012736
 30
0.0
  0
SEQEND
  5
3A3
330
3A0
100
AcDbEntity
  8
PUMP_-_VISTA_LATO
 62
   250
  0
ENDBLK
  5
39F
330
39C
100
AcDbEntity
  8
0
100
AcDbBlockEnd
  0
BLOCK
  5
3A6
330
3A4
100
AcDbEntity
  8
0
100
AcDbBlockBegin
  2
BLOCK_51
 70
     0
 10
0.0
 20
0.0
 30
0.0
  3
BLOCK_51
  1

  0
POLYLINE
  5
3A8
330
3A4
100
AcDbEntity
  8
PUMP_-_VISTA_LATO
 62
   250
100
AcDb2dPolyline
 66
     1
 10
0.0
 20
0.0
 30
0.0
  0
VERTEX
  5
3A9
330
3A8
100
AcDbEntity
  8
PUMP_-_VISTA_LATO
 62
   250
100
AcDbVertex
100
AcDb2dVertex
 10
819.512740429239
 20
-1003.561063012736
 30
0.0
  0
VERTEX
  5
3AA
330
3A8
100
AcDbEntity
  8
PUMP_-_VISTA_LATO
 62
   250
100
AcDbVertex
100
AcDb2dVertex
 10
819.512740429239
 20
-1000.989804344586
 30
0.0
  0
SEQEND
  5
3AB
330
3A8
100
AcDbEntity
  8
PUMP_-_VISTA_LATO
 62
   250
  0
ENDBLK
  5
3A7
330
3A4
100
AcDbEntity
  8
0
100
AcDbBlockEnd
  0
BLOCK
  5
3AE
330
3AC
100
AcDbEntity
  8
0
100
AcDbBlockBegin
  2
BLOCK_52
 70
     0
 10
0.0
 20
0.0
 30
0.0
  3
BLOCK_52
  1

  0
SPLINE
  5
3B0
330
3AC
100
AcDbEntity
  8
PUMP_-_VISTA_LATO
 62
   250
100
AcDbSpline
210
0.0
220
0.0
230
1.0
 70
     8
 71
     3
 72
    11
 73
     7
 74
     0
 42
0.0000000001
 43
0.0000000001
 12
1.0
 22
0.0
 32
0.0
 13
1.0
 23
0.0
 33
0.0
 40
0.0
 40
0.0
 40
0.0
 40
0.0
 40
1.0
 40
1.0
 40
1.0
 40
2.0
 40
2.0
 40
2.0
 40
2.0
 10
820.5878147639769
 20
-1000.391665119658
 30
0.0
 10
820.3591875966973
 20
-1000.391676313674
 30
0.0
 10
820.1277627082802
 20
-1000.453512703245
 30
0.0
 10
819.9193580790845
 20
-1000.58318669475
 30
0.0
 10
819.7544610751687
 20
-1000.685789274963
 30
0.0
 10
819.6153430094552
 20
-1000.824907340663
 30
0.0
 10
819.512740429239
 20
-1000.989804344586
 30
0.0
  0
ENDBLK
  5
3AF
330
3AC
100
AcDbEntity
  8
0
100
AcDbBlockEnd
  0
BLOCK
  5
3B3
330
3B1
100
AcDbEntity
  8
0
100
AcDbBlockBegin
  2
BLOCK_53
 70
     0
 10
0.0
 20
0.0
 30
0.0
  3
BLOCK_53
  1

  0
POLYLINE
  5
3B5
330
3B1
100
AcDbEntity
  8
PUMP_-_VISTA_LATO
 62
   250
100
AcDb2dPolyline
 66
     1
 10
0.0
 20
0.0
 30
0.0
  0
VERTEX
  5
3B6
330
3B5
100
AcDbEntity
  8
PUMP_-_VISTA_LATO
 62
   250
100
AcDbVertex
100
AcDb2dVertex
 10
827.2265164337009
 20
-1000.391837212463
 30
0.0
  0
VERTEX
  5
3B7
330
3B5
100
AcDbEntity
  8
PUMP_-_VISTA_LATO
 62
   250
100
AcDbVertex
100
AcDb2dVertex
 10
820.5890812670762
 20
-1000.391837212463
 30
0.0
  0
SEQEND
  5
3B8
330
3B5
100
AcDbEntity
  8
PUMP_-_VISTA_LATO
 62
   250
  0
ENDBLK
  5
3B4
330
3B1
100
AcDbEntity
  8
0
100
AcDbBlockEnd
  0
BLOCK
  5
3BB
330
3B9
100
AcDbEntity
  8
0
100
AcDbBlockBegin
  2
BLOCK_54
 70
     0
 10
0.0
 20
0.0
 30
0.0
  3
BLOCK_54
  1

  0
POLYLINE
  5
3BD
330
3B9
100
AcDbEntity
  8
PUMP_-_VISTA_LATO
 62
   250
100
AcDb2dPolyline
 66
     1
 10
0.0
 20
0.0
 30
0.0
  0
VERTEX
  5
3BE
330
3BD
100
AcDbEntity
  8
PUMP_-_VISTA_LATO
 62
   250
100
AcDbVertex
100
AcDb2dVertex
 10
817.4511751671438
 20
-1012.500297908611
 30
0.0
  0
VERTEX
  5
3BF
330
3BD
100
AcDbEntity
  8
PUMP_-_VISTA_LATO
 62
   250
100
AcDbVertex
100
AcDb2dVertex
 10
817.4511751671438
 20
-1005.547559656274
 30
0.0
  0
SEQEND
  5
3C0
330
3BD
100
AcDbEntity
  8
PUMP_-_VISTA_LATO
 62
   250
  0
ENDBLK
  5
3BC
330
3B9
100
AcDbEntity
  8
0
100
AcDbBlockEnd
  0
BLOCK
  5
3C3
330
3C1
100
AcDbEntity
  8
0
100
AcDbBlockBegin
  2
BLOCK_55
 70
     0
 10
0.0
 20
0.0
 30
0.0
  3
BLOCK_55
  1

  0
POLYLINE
  5
3C5
330
3C1
100
AcDbEntity
  8
PUMP_-_VISTA_LATO
 62
   250
100
AcDb2dPolyline
 66
     1
 10
0.0
 20
0.0
 30
0.0
  0
VERTEX
  5
3C6
330
3C5
100
AcDbEntity
  8
PUMP_-_VISTA_LATO
 62
   250
100
AcDbVertex
100
AcDb2dVertex
 10
834.2597222197946
 20
-999.7960529248813
 30
0.0
  0
VERTEX
  5
3C7
330
3C5
100
AcDbEntity
  8
PUMP_-_VISTA_LATO
 62
   250
100
AcDbVertex
100
AcDb2dVertex
 10
836.7243822383975
 20
-929.2174243761357
 30
0.0
  0
SEQEND
  5
3C8
330
3C5
100
AcDbEntity
  8
PUMP_-_VISTA_LATO
 62
   250
  0
ENDBLK
  5
3C4
330
3C1
100
AcDbEntity
  8
0
100
AcDbBlockEnd
  0
BLOCK
  5
3CB
330
3C9
100
AcDbEntity
  8
0
100
AcDbBlockBegin
  2
BLOCK_56
 70
     0
 10
0.0
 20
0.0
 30
0.0
  3
BLOCK_56
  1

  0
POLYLINE
  5
3CD
330
3C9
100
AcDbEntity
  8
PUMP_-_VISTA_LATO
 62
   250
100
AcDb2dPolyline
 66
     1
 10
0.0
 20
0.0
 30
0.0
  0
VERTEX
  5
3CE
330
3CD
100
AcDbEntity
  8
PUMP_-_VISTA_LATO
 62
   250
100
AcDbVertex
100
AcDb2dVertex
 10
832.2744356963601
 20
-999.7267251918176
 30
0.0
  0
VERTEX
  5
3CF
330
3CD
100
AcDbEntity
  8
PUMP_-_VISTA_LATO
 62
   250
100
AcDbVertex
100
AcDb2dVertex
 10
834.7390957149502
 20
-929.148096643072
 30
0.0
  0
SEQEND
  5
3D0
330
3CD
100
AcDbEntity
  8
PUMP_-_VISTA_LATO
 62
   250
  0
ENDBLK
  5
3CC
330
3C9
100
AcDbEntity
  8
0
100
AcDbBlockEnd
  0
BLOCK
  5
3D3
330
3D1
100
AcDbEntity
  8
0
100
AcDbBlockBegin
  2
BLOCK_57
 70
     0
 10
0.0
 20
0.0
 30
0.0
  3
BLOCK_57
  1

  0
POLYLINE
  5
3D5
330
3D1
100
AcDbEntity
  8
PUMP_-_VISTA_LATO
 62
   250
100
AcDb2dPolyline
 66
     1
 10
0.0
 20
0.0
 30
0.0
  0
VERTEX
  5
3D6
330
3D5
100
AcDbEntity
  8
PUMP_-_VISTA_LATO
 62
   250
100
AcDbVertex
100
AcDb2dVertex
 10
820.928053885103
 20
-1005.547559656274
 30
0.0
  0
VERTEX
  5
3D7
330
3D5
100
AcDbEntity
  8
PUMP_-_VISTA_LATO
 62
   250
100
AcDbVertex
100
AcDb2dVertex
 10
817.4511751671438
 20
-1005.547559656274
 30
0.0
  0
SEQEND
  5
3D8
330
3D5
100
AcDbEntity
  8
PUMP_-_VISTA_LATO
 62
   250
  0
ENDBLK
  5
3D4
330
3D1
100
AcDbEntity
  8
0
100
AcDbBlockEnd
  0
BLOCK
  5
3DB
330
3D9
100
AcDbEntity
  8
0
100
AcDbBlockBegin
  2
BLOCK_58
 70
     0
 10
0.0
 20
0.0
 30
0.0
  3
BLOCK_58
  1

  0
POLYLINE
  5
3DD
330
3D9
100
AcDbEntity
  8
PUMP_-_VISTA_LATO
 62
   250
100
AcDb2dPolyline
 66
     1
 10
0.0
 20
0.0
 30
0.0
  0
VERTEX
  5
3DE
330
3DD
100
AcDbEntity
  8
PUMP_-_VISTA_LATO
 62
   250
100
AcDbVertex
100
AcDb2dVertex
 10
817.9477993280301
 20
-1005.547559656274
 30
0.0
  0
VERTEX
  5
3DF
330
3DD
100
AcDbEntity
  8
PUMP_-_VISTA_LATO
 62
   250
100
AcDbVertex
100
AcDb2dVertex
 10
817.9477993280301
 20
-1003.561063012736
 30
0.0
  0
SEQEND
  5
3E0
330
3DD
100
AcDbEntity
  8
PUMP_-_VISTA_LATO
 62
   250
  0
ENDBLK
  5
3DC
330
3D9
100
AcDbEntity
  8
0
100
AcDbBlockEnd
  0
BLOCK
  5
3E3
330
3E1
100
AcDbEntity
  8
0
100
AcDbBlockBegin
  2
BLOCK_59
 70
     0
 10
0.0
 20
0.0
 30
0.0
  3
BLOCK_59
  1

  0
POLYLINE
  5
3E5
330
3E1
100
AcDbEntity
  8
PUMP_-_VISTA_LATO
 62
   250
100
AcDb2dPolyline
 66
     1
 10
0.0
 20
0.0
 30
0.0
  0
VERTEX
  5
3E6
330
3E5
100
AcDbEntity
  8
PUMP_-_VISTA_LATO
 62
   250
100
AcDbVertex
100
AcDb2dVertex
 10
967.3566031347146
 20
-1003.561063012736
 30
0.0
  0
VERTEX
  5
3E7
330
3E5
100
AcDbEntity
  8
PUMP_-_VISTA_LATO
 62
   250
100
AcDbVertex
100
AcDb2dVertex
 10
967.3566031347146
 20
-1000.989804344586
 30
0.0
  0
SEQEND
  5
3E8
330
3E5
100
AcDbEntity
  8
PUMP_-_VISTA_LATO
 62
   250
  0
ENDBLK
  5
3E4
330
3E1
100
AcDbEntity
  8
0
100
AcDbBlockEnd
  0
BLOCK
  5
3EB
330
3E9
100
AcDbEntity
  8
0
100
AcDbBlockBegin
  2
BLOCK_60
 70
     0
 10
0.0
 20
0.0
 30
0.0
  3
BLOCK_60
  1

  0
POLYLINE
  5
3ED
330
3E9
100
AcDbEntity
  8
PUMP_-_VISTA_LATO
 62
   250
100
AcDb2dPolyline
 66
     1
 10
0.0
 20
0.0
 30
0.0
  0
VERTEX
  5
3EE
330
3ED
100
AcDbEntity
  8
PUMP_-_VISTA_LATO
 62
   250
100
AcDbVertex
100
AcDb2dVertex
 10
954.5949078676
 20
-999.7267251918176
 30
0.0
  0
VERTEX
  5
3EF
330
3ED
100
AcDbEntity
  8
PUMP_-_VISTA_LATO
 62
   250
100
AcDbVertex
100
AcDb2dVertex
 10
952.1302478490098
 20
-929.148096643072
 30
0.0
  0
SEQEND
  5
3F0
330
3ED
100
AcDbEntity
  8
PUMP_-_VISTA_LATO
 62
   250
  0
ENDBLK
  5
3EC
330
3E9
100
AcDbEntity
  8
0
100
AcDbBlockEnd
  0
BLOCK
  5
3F3
330
3F1
100
AcDbEntity
  8
0
100
AcDbBlockBegin
  2
BLOCK_61
 70
     0
 10
0.0
 20
0.0
 30
0.0
  3
BLOCK_61
  1

  0
POLYLINE
  5
3F5
330
3F1
100
AcDbEntity
  8
PUMP_-_VISTA_LATO
 62
   250
100
AcDb2dPolyline
 66
     1
 10
0.0
 20
0.0
 30
0.0
  0
VERTEX
  5
3F6
330
3F5
100
AcDbEntity
  8
PUMP_-_VISTA_LATO
 62
   250
100
AcDbVertex
100
AcDb2dVertex
 10
968.92154423593
 20
-1005.547559656274
 30
0.0
  0
VERTEX
  5
3F7
330
3F5
100
AcDbEntity
  8
PUMP_-_VISTA_LATO
 62
   250
100
AcDbVertex
100
AcDb2dVertex
 10
968.92154423593
 20
-1003.561063012736
 30
0.0
  0
SEQEND
  5
3F8
330
3F5
100
AcDbEntity
  8
PUMP_-_VISTA_LATO
 62
   250
  0
ENDBLK
  5
3F4
330
3F1
100
AcDbEntity
  8
0
100
AcDbBlockEnd
  0
BLOCK
  5
3FB
330
3F9
100
AcDbEntity
  8
0
100
AcDbBlockBegin
  2
BLOCK_62
 70
     0
 10
0.0
 20
0.0
 30
0.0
  3
BLOCK_62
  1

  0
SPLINE
  5
3FD
330
3F9
100
AcDbEntity
  8
PUMP_-_VISTA_LATO
 62
   250
100
AcDbSpline
210
0.0
220
0.0
230
1.0
 70
     8
 71
     3
 72
     8
 73
     4
 74
     0
 42
0.0000000001
 43
0.0000000001
 12
1.0
 22
0.0
 32
0.0
 13
1.0
 23
0.0
 33
0.0
 40
0.0
 40
0.0
 40
0.0
 40
0.0
 40
1.0
 40
1.0
 40
1.0
 40
1.0
 10
954.5949078676
 20
-999.7267251918176
 30
0.0
 10
954.6696017938265
 20
-1001.865679381855
 30
0.0
 10
956.4252229371101
 20
-1003.561063012736
 30
0.0
 10
958.5654809144883
 20
-1003.561063012736
 30
0.0
  0
ENDBLK
  5
3FC
330
3F9
100
AcDbEntity
  8
0
100
AcDbBlockEnd
  0
BLOCK
  5
400
330
3FE
100
AcDbEntity
  8
0
100
AcDbBlockBegin
  2
BLOCK_63
 70
     0
 10
0.0
 20
0.0
 30
0.0
  3
BLOCK_63
  1

  0
SPLINE
  5
402
330
3FE
100
AcDbEntity
  8
PUMP_-_VISTA_LATO
 62
   250
100
AcDbSpline
210
0.0
220
0.0
230
1.0
 70
     8
 71
     3
 72
     8
 73
     4
 74
     0
 42
0.0000000001
 43
0.0000000001
 12
1.0
 22
0.0
 32
0.0
 13
1.0
 23
0.0
 33
0.0
 40
0.0
 40
0.0
 40
0.0
 40
0.0
 40
1.0
 40
1.0
 40
1.0
 40
1.0
 10
951.716191113941
 20
-1002.671806290571
 30
0.0
 10
951.7722115586109
 20
-1004.276021933103
 30
0.0
 10
953.0889274160671
 20
-1005.547559656274
 30
0.0
 10
954.6941208991024
 20
-1005.547559656274
 30
0.0
  0
ENDBLK
  5
401
330
3FE
100
AcDbEntity
  8
0
100
AcDbBlockEnd
  0
BLOCK
  5
405
330
403
100
AcDbEntity
  8
0
100
AcDbBlockBegin
  2
BLOCK_64
 70
     0
 10
0.0
 20
0.0
 30
0.0
  3
BLOCK_64
  1

  0
POLYLINE
  5
407
330
403
100
AcDbEntity
  8
PUMP_-_VISTA_LATO
 62
   250
100
AcDb2dPolyline
 66
     1
 10
0.0
 20
0.0
 30
0.0
  0
VERTEX
  5
408
330
407
100
AcDbEntity
  8
PUMP_-_VISTA_LATO
 62
   250
100
AcDbVertex
100
AcDb2dVertex
 10
969.4181683968162
 20
-1012.500297908611
 30
0.0
  0
VERTEX
  5
409
330
407
100
AcDbEntity
  8
PUMP_-_VISTA_LATO
 62
   250
100
AcDbVertex
100
AcDb2dVertex
 10
969.4181683968162
 20
-1005.547559656274
 30
0.0
  0
SEQEND
  5
40A
330
407
100
AcDbEntity
  8
PUMP_-_VISTA_LATO
 62
   250
  0
ENDBLK
  5
406
330
403
100
AcDbEntity
  8
0
100
AcDbBlockEnd
  0
BLOCK
  5
40D
330
40B
100
AcDbEntity
  8
0
100
AcDbBlockBegin
  2
BLOCK_65
 70
     0
 10
0.0
 20
0.0
 30
0.0
  3
BLOCK_65
  1

  0
POLYLINE
  5
40F
330
40B
100
AcDbEntity
  8
PUMP_-_VISTA_LATO
 62
   250
100
AcDb2dPolyline
 66
     1
 10
0.0
 20
0.0
 30
0.0
  0
VERTEX
  5
410
330
40F
100
AcDbEntity
  8
PUMP_-_VISTA_LATO
 62
   250
100
AcDbVertex
100
AcDb2dVertex
 10
958.5664862924284
 20
-1003.561063012736
 30
0.0
  0
VERTEX
  5
411
330
40F
100
AcDbEntity
  8
PUMP_-_VISTA_LATO
 62
   250
100
AcDbVertex
100
AcDb2dVertex
 10
958.5664862924284
 20
-1000.989804344586
 30
0.0
  0
SEQEND
  5
412
330
40F
100
AcDbEntity
  8
PUMP_-_VISTA_LATO
 62
   250
  0
ENDBLK
  5
40E
330
40B
100
AcDbEntity
  8
0
100
AcDbBlockEnd
  0
BLOCK
  5
415
330
413
100
AcDbEntity
  8
0
100
AcDbBlockBegin
  2
BLOCK_66
 70
     0
 10
0.0
 20
0.0
 30
0.0
  3
BLOCK_66
  1

  0
SPLINE
  5
417
330
413
100
AcDbEntity
  8
PUMP_-_VISTA_LATO
 62
   250
100
AcDbSpline
210
0.0
220
0.0
230
1.0
 70
     8
 71
     3
 72
    11
 73
     7
 74
     0
 42
0.0000000001
 43
0.0000000001
 12
1.0
 22
0.0
 32
0.0
 13
1.0
 23
0.0
 33
0.0
 40
0.0
 40
0.0
 40
0.0
 40
0.0
 40
1.0
 40
1.0
 40
1.0
 40
2.0
 40
2.0
 40
2.0
 40
2.0
 10
959.6434710949133
 20
-1000.391666465108
 30
0.0
 10
959.4142229136409
 20
-1000.39133234762
 30
0.0
 10
959.1820890857601
 20
-1000.453151494353
 30
0.0
 10
958.9731039422836
 20
-1000.58318669475
 30
0.0
 10
958.8082069383516
 20
-1000.685789274963
 30
0.0
 10
958.669088872651
 20
-1000.824907340663
 30
0.0
 10
958.5664862924219
 20
-1000.989804344586
 30
0.0
  0
ENDBLK
  5
416
330
413
100
AcDbEntity
  8
0
100
AcDbBlockEnd
  0
BLOCK
  5
41A
330
418
100
AcDbEntity
  8
0
100
AcDbBlockBegin
  2
BLOCK_67
 70
     0
 10
0.0
 20
0.0
 30
0.0
  3
BLOCK_67
  1

  0
POLYLINE
  5
41C
330
418
100
AcDbEntity
  8
PUMP_-_VISTA_LATO
 62
   250
100
AcDb2dPolyline
 66
     1
 10
0.0
 20
0.0
 30
0.0
  0
VERTEX
  5
41D
330
41C
100
AcDbEntity
  8
PUMP_-_VISTA_LATO
 62
   250
100
AcDbVertex
100
AcDb2dVertex
 10
886.0846342009386
 20
-914.6653382149947
 30
0.0
  0
VERTEX
  5
41E
330
41C
100
AcDbEntity
  8
PUMP_-_VISTA_LATO
 62
   250
100
AcDbVertex
100
AcDb2dVertex
 10
887.5745066835844
 20
-914.6653382149947
 30
0.0
  0
SEQEND
  5
41F
330
41C
100
AcDbEntity
  8
PUMP_-_VISTA_LATO
 62
   250
  0
ENDBLK
  5
41B
330
418
100
AcDbEntity
  8
0
100
AcDbBlockEnd
  0
BLOCK
  5
422
330
420
100
AcDbEntity
  8
0
100
AcDbBlockBegin
  2
BLOCK_68
 70
     0
 10
0.0
 20
0.0
 30
0.0
  3
BLOCK_68
  1

  0
POLYLINE
  5
424
330
420
100
AcDbEntity
  8
PUMP_-_VISTA_LATO
 62
   250
100
AcDb2dPolyline
 66
     1
 10
0.0
 20
0.0
 30
0.0
  0
VERTEX
  5
425
330
424
100
AcDbEntity
  8
PUMP_-_VISTA_LATO
 62
   250
100
AcDbVertex
100
AcDb2dVertex
 10
887.673831515763
 20
-922.6444699354437
 30
0.0
  0
VERTEX
  5
426
330
424
100
AcDbEntity
  8
PUMP_-_VISTA_LATO
 62
   250
100
AcDbVertex
100
AcDb2dVertex
 10
887.673831515763
 20
-955.3885194072567
 30
0.0
  0
SEQEND
  5
427
330
424
100
AcDbEntity
  8
PUMP_-_VISTA_LATO
 62
   250
  0
ENDBLK
  5
423
330
420
100
AcDbEntity
  8
0
100
AcDbBlockEnd
  0
BLOCK
  5
42A
330
428
100
AcDbEntity
  8
0
100
AcDbBlockBegin
  2
BLOCK_69
 70
     0
 10
0.0
 20
0.0
 30
0.0
  3
BLOCK_69
  1

  0
SPLINE
  5
42C
330
428
100
AcDbEntity
  8
PUMP_-_VISTA_LATO
 62
   250
100
AcDbSpline
210
0.0
220
0.0
230
1.0
 70
     8
 71
     3
 72
    11
 73
     7
 74
     0
 42
0.0000000001
 43
0.0000000001
 12
1.0
 22
0.0
 32
0.0
 13
1.0
 23
0.0
 33
0.0
 40
0.0
 40
0.0
 40
0.0
 40
0.0
 40
1.0
 40
1.0
 40
1.0
 40
2.0
 40
2.0
 40
2.0
 40
2.0
 10
887.6738315157502
 20
-917.6450831802865
 30
0.0
 10
888.4957195810817
 20
-917.5892818041543
 30
0.0
 10
889.1167555481383
 20
-916.8777739307905
 30
0.0
 10
889.0609541720125
 20
-916.0558858654621
 30
0.0
 10
889.0078539119098
 20
-915.273782034568
 30
0.0
 10
888.3584105232844
 20
-914.6662382194072
 30
0.0
 10
887.5745066835844
 20
-914.6653382149947
 30
0.0
  0
ENDBLK
  5
42B
330
428
100
AcDbEntity
  8
0
100
AcDbBlockEnd
  0
BLOCK
  5
42F
330
42D
100
AcDbEntity
  8
0
100
AcDbBlockBegin
  2
BLOCK_70
 70
     0
 10
0.0
 20
0.0
 30
0.0
  3
BLOCK_70
  1

  0
POLYLINE
  5
431
330
42D
100
AcDbEntity
  8
PUMP_-_VISTA_LATO
 62
   250
100
AcDb2dPolyline
 66
     1
 10
0.0
 20
0.0
 30
0.0
  0
VERTEX
  5
432
330
431
100
AcDbEntity
  8
PUMP_-_VISTA_LATO
 62
   250
100
AcDbVertex
100
AcDb2dVertex
 10
873.4703805145471
 20
-914.6653382149947
 30
0.0
  0
VERTEX
  5
433
330
431
100
AcDbEntity
  8
PUMP_-_VISTA_LATO
 62
   250
100
AcDbVertex
100
AcDb2dVertex
 10
874.9602529971866
 20
-914.6653382149947
 30
0.0
  0
SEQEND
  5
434
330
431
100
AcDbEntity
  8
PUMP_-_VISTA_LATO
 62
   250
  0
ENDBLK
  5
430
330
42D
100
AcDbEntity
  8
0
100
AcDbBlockEnd
  0
BLOCK
  5
437
330
435
100
AcDbEntity
  8
0
100
AcDbBlockBegin
  2
BLOCK_71
 70
     0
 10
0.0
 20
0.0
 30
0.0
  3
BLOCK_71
  1

  0
POLYLINE
  5
439
330
435
100
AcDbEntity
  8
PUMP_-_VISTA_LATO
 62
   250
100
AcDb2dPolyline
 66
     1
 10
0.0
 20
0.0
 30
0.0
  0
VERTEX
  5
43A
330
439
100
AcDbEntity
  8
PUMP_-_VISTA_LATO
 62
   250
100
AcDbVertex
100
AcDb2dVertex
 10
873.371055682375
 20
-922.6444699354437
 30
0.0
  0
VERTEX
  5
43B
330
439
100
AcDbEntity
  8
PUMP_-_VISTA_LATO
 62
   250
100
AcDbVertex
100
AcDb2dVertex
 10
873.371055682375
 20
-955.3885194072567
 30
0.0
  0
SEQEND
  5
43C
330
439
100
AcDbEntity
  8
PUMP_-_VISTA_LATO
 62
   250
  0
ENDBLK
  5
438
330
435
100
AcDbEntity
  8
0
100
AcDbBlockEnd
  0
BLOCK
  5
43F
330
43D
100
AcDbEntity
  8
0
100
AcDbBlockBegin
  2
BLOCK_72
 70
     0
 10
0.0
 20
0.0
 30
0.0
  3
BLOCK_72
  1

  0
SPLINE
  5
441
330
43D
100
AcDbEntity
  8
PUMP_-_VISTA_LATO
 62
   250
100
AcDbSpline
210
0.0
220
0.0
230
1.0
 70
     8
 71
     3
 72
    11
 73
     7
 74
     0
 42
0.0000000001
 43
0.0000000001
 12
1.0
 22
0.0
 32
0.0
 13
1.0
 23
0.0
 33
0.0
 40
0.0
 40
0.0
 40
0.0
 40
0.0
 40
1.0
 40
1.0
 40
1.0
 40
2.0
 40
2.0
 40
2.0
 40
2.0
 10
873.4703805145471
 20
-914.6653382149947
 30
0.0
 10
872.6475466632021
 20
-914.6653382149947
 30
0.0
 10
871.9805080319172
 20
-915.3323768462827
 30
0.0
 10
871.9805080319172
 20
-916.1552106976407
 30
0.0
 10
871.9805080319172
 20
-916.9780445490048
 30
0.0
 10
872.6475466632021
 20
-917.6450831802865
 30
0.0
 10
873.4703805145471
 20
-917.6450831802865
 30
0.0
  0
ENDBLK
  5
440
330
43D
100
AcDbEntity
  8
0
100
AcDbBlockEnd
  0
BLOCK
  5
444
330
442
100
AcDbEntity
  8
0
100
AcDbBlockBegin
  2
BLOCK_73
 70
     0
 10
0.0
 20
0.0
 30
0.0
  3
BLOCK_73
  1

  0
POLYLINE
  5
446
330
442
100
AcDbEntity
  8
PUMP_-_VISTA_LATO
 62
   250
100
AcDb2dPolyline
 66
     1
 10
0.0
 20
0.0
 30
0.0
  0
VERTEX
  5
447
330
446
100
AcDbEntity
  8
PUMP_-_VISTA_LATO
 62
   250
100
AcDbVertex
100
AcDb2dVertex
 10
873.371055682375
 20
-917.6417686655826
 30
0.0
  0
VERTEX
  5
448
330
446
100
AcDbEntity
  8
PUMP_-_VISTA_LATO
 62
   250
100
AcDbVertex
100
AcDb2dVertex
 10
873.371055682375
 20
-917.6450831802737
 30
0.0
  0
SEQEND
  5
449
330
446
100
AcDbEntity
  8
PUMP_-_VISTA_LATO
 62
   250
  0
ENDBLK
  5
445
330
442
100
AcDbEntity
  8
0
100
AcDbBlockEnd
  0
BLOCK
  5
44C
330
44A
100
AcDbEntity
  8
0
100
AcDbBlockBegin
  2
BLOCK_74
 70
     0
 10
0.0
 20
0.0
 30
0.0
  3
BLOCK_74
  1

  0
POLYLINE
  5
44E
330
44A
100
AcDbEntity
  8
PUMP_-_VISTA_LATO
 62
   250
100
AcDb2dPolyline
 66
     1
 10
0.0
 20
0.0
 30
0.0
  0
VERTEX
  5
44F
330
44E
100
AcDbEntity
  8
PUMP_-_VISTA_LATO
 62
   250
100
AcDbVertex
100
AcDb2dVertex
 10
951.716191113941
 20
-1002.671806290571
 30
0.0
  0
VERTEX
  5
450
330
44E
100
AcDbEntity
  8
PUMP_-_VISTA_LATO
 62
   250
100
AcDbVertex
100
AcDb2dVertex
 10
950.2323948858779
 20
-960.181441683428
 30
0.0
  0
SEQEND
  5
451
330
44E
100
AcDbEntity
  8
PUMP_-_VISTA_LATO
 62
   250
  0
ENDBLK
  5
44D
330
44A
100
AcDbEntity
  8
0
100
AcDbBlockEnd
  0
BLOCK
  5
454
330
452
100
AcDbEntity
  8
0
100
AcDbBlockBegin
  2
BLOCK_75
 70
     0
 10
0.0
 20
0.0
 30
0.0
  3
BLOCK_75
  1

  0
POLYLINE
  5
456
330
452
100
AcDbEntity
  8
PUMP_-_VISTA_LATO
 62
   250
100
AcDb2dPolyline
 66
     1
 10
0.0
 20
0.0
 30
0.0
  0
VERTEX
  5
457
330
456
100
AcDbEntity
  8
PUMP_-_VISTA_LATO
 62
   250
100
AcDbVertex
100
AcDb2dVertex
 10
952.6096213441526
 20
-999.7960529248813
 30
0.0
  0
VERTEX
  5
458
330
456
100
AcDbEntity
  8
PUMP_-_VISTA_LATO
 62
   250
100
AcDbVertex
100
AcDb2dVertex
 10
950.1449613255625
 20
-929.2174243761357
 30
0.0
  0
SEQEND
  5
459
330
456
100
AcDbEntity
  8
PUMP_-_VISTA_LATO
 62
   250
  0
ENDBLK
  5
455
330
452
100
AcDbEntity
  8
0
100
AcDbBlockEnd
  0
BLOCK
  5
45C
330
45A
100
AcDbEntity
  8
0
100
AcDbBlockBegin
  2
BLOCK_76
 70
     0
 10
0.0
 20
0.0
 30
0.0
  3
BLOCK_76
  1

  0
POLYLINE
  5
45E
330
45A
100
AcDbEntity
  8
PUMP_-_VISTA_LATO
 62
   250
100
AcDb2dPolyline
 66
     1
 10
0.0
 20
0.0
 30
0.0
  0
VERTEX
  5
45F
330
45E
100
AcDbEntity
  8
PUMP_-_VISTA_LATO
 62
   250
100
AcDbVertex
100
AcDb2dVertex
 10
817.4511751671438
 20
-1012.500297908611
 30
0.0
  0
VERTEX
  5
460
330
45E
100
AcDbEntity
  8
PUMP_-_VISTA_LATO
 62
   250
100
AcDbVertex
100
AcDb2dVertex
 10
969.4263281566384
 20
-1012.500297908611
 30
0.0
  0
SEQEND
  5
461
330
45E
100
AcDbEntity
  8
PUMP_-_VISTA_LATO
 62
   250
  0
ENDBLK
  5
45D
330
45A
100
AcDbEntity
  8
0
100
AcDbBlockEnd
  0
BLOCK
  5
464
330
462
100
AcDbEntity
  8
0
100
AcDbBlockBegin
  2
BLOCK_77
 70
     0
 10
0.0
 20
0.0
 30
0.0
  3
BLOCK_77
  1

  0
POLYLINE
  5
466
330
462
100
AcDbEntity
  8
PUMP_-_VISTA_LATO
 62
   250
100
AcDb2dPolyline
 66
     1
 10
0.0
 20
0.0
 30
0.0
  0
VERTEX
  5
467
330
466
100
AcDbEntity
  8
PUMP_-_VISTA_LATO
 62
   250
100
AcDbVertex
100
AcDb2dVertex
 10
899.1245016143471
 20
-918.6383315020462
 30
0.0
  0
VERTEX
  5
468
330
466
100
AcDbEntity
  8
PUMP_-_VISTA_LATO
 62
   250
100
AcDbVertex
100
AcDb2dVertex
 10
940.218528708345
 20
-918.6383315020462
 30
0.0
  0
SEQEND
  5
469
330
466
100
AcDbEntity
  8
PUMP_-_VISTA_LATO
 62
   250
  0
ENDBLK
  5
465
330
462
100
AcDbEntity
  8
0
100
AcDbBlockEnd
  0
BLOCK
  5
46C
330
46A
100
AcDbEntity
  8
0
100
AcDbBlockBegin
  2
BLOCK_78
 70
     0
 10
0.0
 20
0.0
 30
0.0
  3
BLOCK_78
  1

  0
POLYLINE
  5
46E
330
46A
100
AcDbEntity
  8
PUMP_-_VISTA_LATO
 62
   250
100
AcDb2dPolyline
 66
     1
 10
0.0
 20
0.0
 30
0.0
  0
VERTEX
  5
46F
330
46E
100
AcDbEntity
  8
PUMP_-_VISTA_LATO
 62
   250
100
AcDbVertex
100
AcDb2dVertex
 10
820.928053885103
 20
-1005.547559656274
 30
0.0
  0
VERTEX
  5
470
330
46E
100
AcDbEntity
  8
PUMP_-_VISTA_LATO
 62
   250
100
AcDbVertex
100
AcDb2dVertex
 10
969.4181683968162
 20
-1005.547559656274
 30
0.0
  0
SEQEND
  5
471
330
46E
100
AcDbEntity
  8
PUMP_-_VISTA_LATO
 62
   250
  0
ENDBLK
  5
46D
330
46A
100
AcDbEntity
  8
0
100
AcDbBlockEnd
  0
BLOCK
  5
474
330
472
100
AcDbEntity
  8
0
100
AcDbBlockBegin
  2
BLOCK_79
 70
     0
 10
0.0
 20
0.0
 30
0.0
  3
BLOCK_79
  1

  0
POLYLINE
  5
476
330
472
100
AcDbEntity
  8
PUMP_-_VISTA_LATO
 62
   250
100
AcDb2dPolyline
 66
     1
 10
0.0
 20
0.0
 30
0.0
  0
VERTEX
  5
477
330
476
100
AcDbEntity
  8
PUMP_-_VISTA_LATO
 62
   250
100
AcDbVertex
100
AcDb2dVertex
 10
846.6508148556151
 20
-917.6450831802737
 30
0.0
  0
VERTEX
  5
478
330
476
100
AcDbEntity
  8
PUMP_-_VISTA_LATO
 62
   250
100
AcDbVertex
100
AcDb2dVertex
 10
913.4272774477223
 20
-917.6450831802737
 30
0.0
  0
SEQEND
  5
479
330
476
100
AcDbEntity
  8
PUMP_-_VISTA_LATO
 62
   250
  0
ENDBLK
  5
475
330
472
100
AcDbEntity
  8
0
100
AcDbBlockEnd
  0
BLOCK
  5
47C
330
47A
100
AcDbEntity
  8
0
100
AcDbBlockBegin
  2
BLOCK_80
 70
     0
 10
0.0
 20
0.0
 30
0.0
  3
BLOCK_80
  1

  0
POLYLINE
  5
47E
330
47A
100
AcDbEntity
  8
PUMP_-_VISTA_LATO
 62
   250
100
AcDb2dPolyline
 66
     1
 10
0.0
 20
0.0
 30
0.0
  0
VERTEX
  5
47F
330
47E
100
AcDbEntity
  8
PUMP_-_VISTA_LATO
 62
   250
100
AcDbVertex
100
AcDb2dVertex
 10
886.0846342009386
 20
-888.8126944804052
 30
0.0
  0
VERTEX
  5
480
330
47E
100
AcDbEntity
  8
PUMP_-_VISTA_LATO
 62
   250
100
AcDbVertex
100
AcDb2dVertex
 10
886.0846342009386
 20
-914.6653382149947
 30
0.0
  0
SEQEND
  5
481
330
47E
100
AcDbEntity
  8
PUMP_-_VISTA_LATO
 62
   250
  0
ENDBLK
  5
47D
330
47A
100
AcDbEntity
  8
0
100
AcDbBlockEnd
  0
BLOCK
  5
484
330
482
100
AcDbEntity
  8
0
100
AcDbBlockBegin
  2
BLOCK_81
 70
     0
 10
0.0
 20
0.0
 30
0.0
  3
BLOCK_81
  1

  0
POLYLINE
  5
486
330
482
100
AcDbEntity
  8
PUMP_-_VISTA_LATO
 62
   250
100
AcDb2dPolyline
 66
     1
 10
0.0
 20
0.0
 30
0.0
  0
VERTEX
  5
487
330
486
100
AcDbEntity
  8
PUMP_-_VISTA_LATO
 62
   250
100
AcDbVertex
100
AcDb2dVertex
 10
899.1245016143471
 20
-922.6444699354437
 30
0.0
  0
VERTEX
  5
488
330
486
100
AcDbEntity
  8
PUMP_-_VISTA_LATO
 62
   250
100
AcDbVertex
100
AcDb2dVertex
 10
947.7569071033279
 20
-922.6444699354437
 30
0.0
  0
SEQEND
  5
489
330
486
100
AcDbEntity
  8
PUMP_-_VISTA_LATO
 62
   250
  0
ENDBLK
  5
485
330
482
100
AcDbEntity
  8
0
100
AcDbBlockEnd
  0
BLOCK
  5
48C
330
48A
100
AcDbEntity
  8
0
100
AcDbBlockBegin
  2
BLOCK_82
 70
     0
 10
0.0
 20
0.0
 30
0.0
  3
BLOCK_82
  1

  0
POLYLINE
  5
48E
330
48A
100
AcDbEntity
  8
PUMP_-_VISTA_LATO
 62
   250
100
AcDb2dPolyline
 66
     1
 10
0.0
 20
0.0
 30
0.0
  0
VERTEX
  5
48F
330
48E
100
AcDbEntity
  8
PUMP_-_VISTA_LATO
 62
   250
100
AcDbVertex
100
AcDb2dVertex
 10
945.2691785772691
 20
-955.3885194072567
 30
0.0
  0
VERTEX
  5
490
330
48E
100
AcDbEntity
  8
PUMP_-_VISTA_LATO
 62
   250
100
AcDbVertex
100
AcDb2dVertex
 10
841.6001649866973
 20
-955.3885194072567
 30
0.0
  0
SEQEND
  5
491
330
48E
100
AcDbEntity
  8
PUMP_-_VISTA_LATO
 62
   250
  0
ENDBLK
  5
48D
330
48A
100
AcDbEntity
  8
0
100
AcDbBlockEnd
  0
BLOCK
  5
494
330
492
100
AcDbEntity
  8
0
100
AcDbBlockBegin
  2
BLOCK_83
 70
     0
 10
0.0
 20
0.0
 30
0.0
  3
BLOCK_83
  1

  0
POLYLINE
  5
496
330
492
100
AcDbEntity
  8
PUMP_-_VISTA_LATO
 62
   250
100
AcDb2dPolyline
 66
     1
 10
0.0
 20
0.0
 30
0.0
  0
VERTEX
  5
497
330
496
100
AcDbEntity
  8
PUMP_-_VISTA_LATO
 62
   250
100
AcDbVertex
100
AcDb2dVertex
 10
874.9602529971866
 20
-888.8126944804052
 30
0.0
  0
VERTEX
  5
498
330
496
100
AcDbEntity
  8
PUMP_-_VISTA_LATO
 62
   250
100
AcDbVertex
100
AcDb2dVertex
 10
874.9602529971866
 20
-914.6653382149947
 30
0.0
  0
SEQEND
  5
499
330
496
100
AcDbEntity
  8
PUMP_-_VISTA_LATO
 62
   250
  0
ENDBLK
  5
495
330
492
100
AcDbEntity
  8
0
100
AcDbBlockEnd
  0
BLOCK
  5
49D
330
49B
100
AcDbEntity
  8
0
100
AcDbBlockBegin
  2
BLOCK_84
 70
     0
 10
0.0
 20
0.0
 30
0.0
  3
BLOCK_84
  1

  0
INSERT
  5
4A0
330
49B
100
AcDbEntity
  8
PUMP_-_FRONTE
100
AcDbBlockReference
  2
BLOCK_85
 10
0.0
 20
0.0
 30
0.0
  0
INSERT
  5
4B7
330
49B
100
AcDbEntity
  8
PUMP_-_FRONTE
100
AcDbBlockReference
  2
BLOCK_86
 10
0.0
 20
0.0
 30
0.0
  0
INSERT
  5
4C0
330
49B
100
AcDbEntity
  8
PUMP_-_FRONTE
100
AcDbBlockReference
  2
BLOCK_87
 10
0.0
 20
0.0
 30
0.0
  0
INSERT
  5
4CE
330
49B
100
AcDbEntity
  8
PUMP_-_FRONTE
100
AcDbBlockReference
  2
BLOCK_88
 10
0.0
 20
0.0
 30
0.0
  0
INSERT
  5
4D4
330
49B
100
AcDbEntity
  8
PUMP_-_FRONTE
100
AcDbBlockReference
  2
BLOCK_89
 10
0.0
 20
0.0
 30
0.0
  0
INSERT
  5
4DD
330
49B
100
AcDbEntity
  8
PUMP_-_FRONTE
100
AcDbBlockReference
  2
BLOCK_90
 10
0.0
 20
0.0
 30
0.0
  0
INSERT
  5
4E6
330
49B
100
AcDbEntity
  8
PUMP_-_FRONTE
100
AcDbBlockReference
  2
BLOCK_91
 10
0.0
 20
0.0
 30
0.0
  0
INSERT
  5
4EF
330
49B
100
AcDbEntity
  8
PUMP_-_FRONTE
100
AcDbBlockReference
  2
BLOCK_92
 10
0.0
 20
0.0
 30
0.0
  0
ENDBLK
  5
49E
330
49B
100
AcDbEntity
  8
0
100
AcDbBlockEnd
  0
BLOCK
  5
4A1
330
49F
100
AcDbEntity
  8
0
100
AcDbBlockBegin
  2
BLOCK_85
 70
     0
 10
0.0
 20
0.0
 30
0.0
  3
BLOCK_85
  1

  0
SPLINE
  5
4A3
330
49F
100
AcDbEntity
  8
PUMP_-_FRONTE
 62
   250
100
AcDbSpline
210
0.0
220
0.0
230
1.0
 70
     8
 71
     3
 72
    32
 73
    28
 74
     0
 42
0.0000000001
 43
0.0000000001
 12
1.0
 22
0.0
 32
0.0
 13
1.0
 23
0.0
 33
0.0
 40
0.0
 40
0.0
 40
0.0
 40
0.0
 40
1.0
 40
1.0
 40
1.0
 40
2.0
 40
2.0
 40
2.0
 40
3.0
 40
3.0
 40
3.0
 40
4.0
 40
4.0
 40
4.0
 40
5.0
 40
5.0
 40
5.0
 40
6.0
 40
6.0
 40
6.0
 40
7.0
 40
7.0
 40
7.0
 40
8.0
 40
8.0
 40
8.0
 40
9.0
 40
9.0
 40
9.0
 40
9.0
 10
1306.870410655735
 20
-1303.07289416102
 30
0.0
 10
1307.406492803683
 20
-1298.675473678321
 30
0.0
 10
1311.062896342588
 20
-1295.322092408977
 30
0.0
 10
1315.490174128155
 20
-1295.167488461954
 30
0.0
 10
1320.457708944108
 20
-1294.994018323704
 30
0.0
 10
1324.625316903405
 20
-1298.880375618849
 30
0.0
 10
1324.798787041653
 20
-1303.847910434803
 30
0.0
 10
1324.798787041653
 20
-1303.847910434803
 30
0.0
 10
1324.931291077436
 20
-1307.642329564479
 30
0.0
 10
1324.931291077436
 20
-1307.642329564479
 30
0.0
 10
1325.025293157012
 20
-1310.334196924314
 30
0.0
 10
1327.234737040294
 20
-1312.467832080966
 30
0.0
 10
1329.928245212528
 20
-1312.467832080966
 30
0.0
 10
1329.928245212528
 20
-1312.467832080966
 30
0.0
 10
1390.068641632748
 20
-1312.467832080966
 30
0.0
 10
1390.068641632748
 20
-1312.467832080966
 30
0.0
 10
1392.762149804982
 20
-1312.467832080966
 30
0.0
 10
1394.97159368827
 20
-1310.334196924314
 30
0.0
 10
1395.06559576784
 20
-1307.642329564479
 30
0.0
 10
1395.06559576784
 20
-1307.642329564479
 30
0.0
 10
1395.198099803623
 20
-1303.847910434803
 30
0.0
 10
1395.198099803623
 20
-1303.847910434803
 30
0.0
 10
1395.352703750649
 20
-1299.420632649238
 30
0.0
 10
1398.706085019993
 20
-1295.764229110323
 30
0.0
 10
1403.103505502692
 20
-1295.228146962382
 30
0.0
 10
1408.037539553915
 20
-1294.626647155247
 30
0.0
 10
1412.524976382411
 20
-1298.138860109804
 30
0.0
 10
1413.12647618954
 20
-1303.07289416102
 30
0.0
  0
POLYLINE
  5
4A4
330
49F
100
AcDbEntity
  8
PUMP_-_FRONTE
 62
   250
100
AcDb2dPolyline
 66
     1
 10
0.0
 20
0.0
 30
0.0
  0
VERTEX
  5
4A5
330
4A4
100
AcDbEntity
  8
PUMP_-_FRONTE
 62
   250
100
AcDbVertex
100
AcDb2dVertex
 10
1296.485623847533
 20
-1307.467832080969
 30
0.0
  0
VERTEX
  5
4A6
330
4A4
100
AcDbEntity
  8
PUMP_-_FRONTE
 62
   250
100
AcDbVertex
100
AcDb2dVertex
 10
1301.907155687545
 20
-1307.467832080969
 30
0.0
  0
SEQEND
  5
4A7
330
4A4
100
AcDbEntity
  8
PUMP_-_FRONTE
 62
   250
  0
SPLINE
  5
4A8
330
49F
100
AcDbEntity
  8
PUMP_-_FRONTE
 62
   250
100
AcDbSpline
210
0.0
220
0.0
230
1.0
 70
     8
 71
     3
 72
     8
 73
     4
 74
     0
 42
0.0000000001
 43
0.0000000001
 12
1.0
 22
0.0
 32
0.0
 13
1.0
 23
0.0
 33
0.0
 40
0.0
 40
0.0
 40
0.0
 40
0.0
 40
1.0
 40
1.0
 40
1.0
 40
1.0
 10
1301.907155687545
 20
-1307.467832080969
 30
0.0
 10
1304.434575275515
 20
-1307.467832080969
 30
0.0
 10
1306.564561505122
 20
-1305.581739726365
 30
0.0
 10
1306.870410655735
 20
-1303.07289416102
 30
0.0
  0
SPLINE
  5
4A9
330
49F
100
AcDbEntity
  8
PUMP_-_FRONTE
 62
   250
100
AcDbSpline
210
0.0
220
0.0
230
1.0
 70
     8
 71
     3
 72
    23
 73
    19
 74
     0
 42
0.0000000001
 43
0.0000000001
 12
1.0
 22
0.0
 32
0.0
 13
1.0
 23
0.0
 33
0.0
 40
0.0
 40
0.0
 40
0.0
 40
0.0
 40
1.0
 40
1.0
 40
1.0
 40
2.0
 40
2.0
 40
2.0
 40
3.0
 40
3.0
 40
3.0
 40
4.0
 40
4.0
 40
4.0
 40
5.0
 40
5.0
 40
5.0
 40
6.0
 40
6.0
 40
6.0
 40
6.0
 10
1306.870410655735
 20
-1216.862770000905
 30
0.0
 10
1306.564561505122
 20
-1214.353924435574
 30
0.0
 10
1304.434575275515
 20
-1212.467832080969
 30
0.0
 10
1301.907155687545
 20
-1212.467832080969
 30
0.0
 10
1301.907155687545
 20
-1212.467832080969
 30
0.0
 10
1296.485623847533
 20
-1212.467832080969
 30
0.0
 10
1296.485623847533
 20
-1212.467832080969
 30
0.0
 10
1293.792115675299
 20
-1212.467832080969
 30
0.0
 10
1291.582671792011
 20
-1214.601467237622
 30
0.0
 10
1291.488669712435
 20
-1217.293334597457
 30
0.0
 10
1291.488669712435
 20
-1217.293334597457
 30
0.0
 10
1289.998443422639
 20
-1259.967832080969
 30
0.0
 10
1289.998443422639
 20
-1259.967832080969
 30
0.0
 10
1289.998443422639
 20
-1259.967832080969
 30
0.0
 10
1291.488669712435
 20
-1302.642329564482
 30
0.0
 10
1291.488669712435
 20
-1302.642329564482
 30
0.0
 10
1291.582671792011
 20
-1305.33419692431
 30
0.0
 10
1293.792115675299
 20
-1307.467832080969
 30
0.0
 10
1296.485623847533
 20
-1307.467832080969
 30
0.0
  0
SPLINE
  5
4AA
330
49F
100
AcDbEntity
  8
PUMP_-_FRONTE
 62
   250
100
AcDbSpline
210
0.0
220
0.0
230
1.0
 70
     8
 71
     3
 72
    11
 73
     7
 74
     0
 42
0.0000000001
 43
0.0000000001
 12
1.0
 22
0.0
 32
0.0
 13
1.0
 23
0.0
 33
0.0
 40
0.0
 40
0.0
 40
0.0
 40
0.0
 40
1.0
 40
1.0
 40
1.0
 40
2.0
 40
2.0
 40
2.0
 40
2.0
 10
1394.998443422639
 20
-1259.967832080969
 30
0.0
 10
1394.998443422639
 20
-1240.637865836889
 30
0.0
 10
1379.328409666715
 20
-1224.967832080965
 30
0.0
 10
1359.998443422641
 20
-1224.967832080965
 30
0.0
 10
1340.668477178561
 20
-1224.967832080965
 30
0.0
 10
1324.998443422643
 20
-1240.637865836889
 30
0.0
 10
1324.998443422643
 20
-1259.967832080969
 30
0.0
  0
SPLINE
  5
4AB
330
49F
100
AcDbEntity
  8
PUMP_-_FRONTE
 62
   250
100
AcDbSpline
210
0.0
220
0.0
230
1.0
 70
     8
 71
     3
 72
    11
 73
     7
 74
     0
 42
0.0000000001
 43
0.0000000001
 12
1.0
 22
0.0
 32
0.0
 13
1.0
 23
0.0
 33
0.0
 40
0.0
 40
0.0
 40
0.0
 40
0.0
 40
1.0
 40
1.0
 40
1.0
 40
2.0
 40
2.0
 40
2.0
 40
2.0
 10
1324.998443422643
 20
-1259.967832080969
 30
0.0
 10
1324.998443422643
 20
-1279.297798325043
 30
0.0
 10
1340.668477178561
 20
-1294.967832080967
 30
0.0
 10
1359.998443422641
 20
-1294.967832080967
 30
0.0
 10
1379.328409666715
 20
-1294.967832080967
 30
0.0
 10
1394.998443422639
 20
-1279.297798325043
 30
0.0
 10
1394.998443422639
 20
-1259.967832080969
 30
0.0
  0
SPLINE
  5
4AC
330
49F
100
AcDbEntity
  8
PUMP_-_FRONTE
 62
   250
100
AcDbSpline
210
0.0
220
0.0
230
1.0
 70
     8
 71
     3
 72
    11
 73
     7
 74
     0
 42
0.0000000001
 43
0.0000000001
 12
1.0
 22
0.0
 32
0.0
 13
1.0
 23
0.0
 33
0.0
 40
0.0
 40
0.0
 40
0.0
 40
0.0
 40
1.0
 40
1.0
 40
1.0
 40
2.0
 40
2.0
 40
2.0
 40
2.0
 10
1388.498443422644
 20
-1259.967832080969
 30
0.0
 10
1388.498443422644
 20
-1244.227716710789
 30
0.0
 10
1375.738558792815
 20
-1231.467832080967
 30
0.0
 10
1359.998443422641
 20
-1231.467832080967
 30
0.0
 10
1344.25832805246
 20
-1231.467832080967
 30
0.0
 10
1331.498443422639
 20
-1244.227716710789
 30
0.0
 10
1331.498443422639
 20
-1259.967832080969
 30
0.0
  0
SPLINE
  5
4AD
330
49F
100
AcDbEntity
  8
PUMP_-_FRONTE
 62
   250
100
AcDbSpline
210
0.0
220
0.0
230
1.0
 70
     8
 71
     3
 72
    11
 73
     7
 74
     0
 42
0.0000000001
 43
0.0000000001
 12
1.0
 22
0.0
 32
0.0
 13
1.0
 23
0.0
 33
0.0
 40
0.0
 40
0.0
 40
0.0
 40
0.0
 40
1.0
 40
1.0
 40
1.0
 40
2.0
 40
2.0
 40
2.0
 40
2.0
 10
1385.49844342264
 20
-1259.967832080969
 30
0.0
 10
1385.49844342264
 20
-1245.884570960278
 30
0.0
 10
1374.081704543326
 20
-1234.467832080963
 30
0.0
 10
1359.998443422641
 20
-1234.467832080963
 30
0.0
 10
1345.915182301957
 20
-1234.467832080963
 30
0.0
 10
1334.498443422642
 20
-1245.884570960278
 30
0.0
 10
1334.498443422642
 20
-1259.967832080969
 30
0.0
  0
SPLINE
  5
4AE
330
49F
100
AcDbEntity
  8
PUMP_-_FRONTE
 62
   250
100
AcDbSpline
210
0.0
220
0.0
230
1.0
 70
     8
 71
     3
 72
    11
 73
     7
 74
     0
 42
0.0000000001
 43
0.0000000001
 12
1.0
 22
0.0
 32
0.0
 13
1.0
 23
0.0
 33
0.0
 40
0.0
 40
0.0
 40
0.0
 40
0.0
 40
1.0
 40
1.0
 40
1.0
 40
2.0
 40
2.0
 40
2.0
 40
2.0
 10
1331.498443422639
 20
-1259.967832080969
 30
0.0
 10
1331.498443422639
 20
-1275.707947451143
 30
0.0
 10
1344.25832805246
 20
-1288.467832080965
 30
0.0
 10
1359.998443422641
 20
-1288.467832080965
 30
0.0
 10
1375.738558792815
 20
-1288.467832080965
 30
0.0
 10
1388.498443422644
 20
-1275.707947451143
 30
0.0
 10
1388.498443422644
 20
-1259.967832080969
 30
0.0
  0
SPLINE
  5
4AF
330
49F
100
AcDbEntity
  8
PUMP_-_FRONTE
 62
   250
100
AcDbSpline
210
0.0
220
0.0
230
1.0
 70
     8
 71
     3
 72
    11
 73
     7
 74
     0
 42
0.0000000001
 43
0.0000000001
 12
1.0
 22
0.0
 32
0.0
 13
1.0
 23
0.0
 33
0.0
 40
0.0
 40
0.0
 40
0.0
 40
0.0
 40
1.0
 40
1.0
 40
1.0
 40
2.0
 40
2.0
 40
2.0
 40
2.0
 10
1334.498443422642
 20
-1259.967832080969
 30
0.0
 10
1334.498443422642
 20
-1274.051093201647
 30
0.0
 10
1345.915182301957
 20
-1285.467832080962
 30
0.0
 10
1359.998443422641
 20
-1285.467832080962
 30
0.0
 10
1374.081704543326
 20
-1285.467832080962
 30
0.0
 10
1385.49844342264
 20
-1274.051093201647
 30
0.0
 10
1385.49844342264
 20
-1259.967832080969
 30
0.0
  0
SPLINE
  5
4B0
330
49F
100
AcDbEntity
  8
PUMP_-_FRONTE
 62
   250
100
AcDbSpline
210
0.0
220
0.0
230
1.0
 70
     8
 71
     3
 72
    32
 73
    28
 74
     0
 42
0.0000000001
 43
0.0000000001
 12
1.0
 22
0.0
 32
0.0
 13
1.0
 23
0.0
 33
0.0
 40
0.0
 40
0.0
 40
0.0
 40
0.0
 40
1.0
 40
1.0
 40
1.0
 40
2.0
 40
2.0
 40
2.0
 40
3.0
 40
3.0
 40
3.0
 40
4.0
 40
4.0
 40
4.0
 40
5.0
 40
5.0
 40
5.0
 40
6.0
 40
6.0
 40
6.0
 40
7.0
 40
7.0
 40
7.0
 40
8.0
 40
8.0
 40
8.0
 40
9.0
 40
9.0
 40
9.0
 40
9.0
 10
1413.12647618954
 20
-1216.862770000905
 30
0.0
 10
1412.5903940416
 20
-1221.260190483611
 30
0.0
 10
1408.933990502694
 20
-1224.613571752948
 30
0.0
 10
1404.506712717121
 20
-1224.768175699974
 30
0.0
 10
1399.539177901174
 20
-1224.941645838228
 30
0.0
 10
1395.371569941877
 20
-1221.055288543076
 30
0.0
 10
1395.198099803623
 20
-1216.087753727129
 30
0.0
 10
1395.198099803623
 20
-1216.087753727129
 30
0.0
 10
1395.06559576784
 20
-1212.293334597453
 30
0.0
 10
1395.06559576784
 20
-1212.293334597453
 30
0.0
 10
1394.97159368827
 20
-1209.601467237625
 30
0.0
 10
1392.762149804982
 20
-1207.467832080966
 30
0.0
 10
1390.068641632748
 20
-1207.467832080966
 30
0.0
 10
1390.068641632748
 20
-1207.467832080966
 30
0.0
 10
1329.928245212528
 20
-1207.467832080966
 30
0.0
 10
1329.928245212528
 20
-1207.467832080966
 30
0.0
 10
1327.234737040294
 20
-1207.467832080966
 30
0.0
 10
1325.025293157012
 20
-1209.601467237625
 30
0.0
 10
1324.931291077436
 20
-1212.293334597453
 30
0.0
 10
1324.931291077436
 20
-1212.293334597453
 30
0.0
 10
1324.798787041653
 20
-1216.087753727129
 30
0.0
 10
1324.798787041653
 20
-1216.087753727129
 30
0.0
 10
1324.644183094627
 20
-1220.515031512697
 30
0.0
 10
1321.290801825283
 20
-1224.171435051602
 30
0.0
 10
1316.893381342584
 20
-1224.707517199549
 30
0.0
 10
1311.959347291367
 20
-1225.309017006678
 30
0.0
 10
1307.471910462864
 20
-1221.796804052121
 30
0.0
 10
1306.870410655735
 20
-1216.862770000905
 30
0.0
  0
SPLINE
  5
4B1
330
49F
100
AcDbEntity
  8
PUMP_-_FRONTE
 62
   250
100
AcDbSpline
210
0.0
220
0.0
230
1.0
 70
     8
 71
     3
 72
    29
 73
    25
 74
     0
 42
0.0000000001
 43
0.0000000001
 12
1.0
 22
0.0
 32
0.0
 13
1.0
 23
0.0
 33
0.0
 40
0.0
 40
0.0
 40
0.0
 40
0.0
 40
1.0
 40
1.0
 40
1.0
 40
2.0
 40
2.0
 40
2.0
 40
3.0
 40
3.0
 40
3.0
 40
4.0
 40
4.0
 40
4.0
 40
5.0
 40
5.0
 40
5.0
 40
6.0
 40
6.0
 40
6.0
 40
7.0
 40
7.0
 40
7.0
 40
8.0
 40
8.0
 40
8.0
 40
8.0
 10
1413.12647618954
 20
-1216.862770000905
 30
0.0
 10
1413.43232534016
 20
-1214.353924435574
 30
0.0
 10
1415.562311569767
 20
-1212.467832080969
 30
0.0
 10
1418.089731157738
 20
-1212.467832080969
 30
0.0
 10
1418.089731157738
 20
-1212.467832080969
 30
0.0
 10
1423.511262997749
 20
-1212.467832080969
 30
0.0
 10
1423.511262997749
 20
-1212.467832080969
 30
0.0
 10
1426.204771169983
 20
-1212.467832080969
 30
0.0
 10
1428.414215053265
 20
-1214.601467237622
 30
0.0
 10
1428.508217132841
 20
-1217.293334597457
 30
0.0
 10
1428.508217132841
 20
-1217.293334597457
 30
0.0
 10
1429.998443422637
 20
-1259.967832080969
 30
0.0
 10
1429.998443422637
 20
-1259.967832080969
 30
0.0
 10
1429.998443422637
 20
-1259.967832080969
 30
0.0
 10
1428.508217132841
 20
-1302.642329564482
 30
0.0
 10
1428.508217132841
 20
-1302.642329564482
 30
0.0
 10
1428.414215053265
 20
-1305.33419692431
 30
0.0
 10
1426.204771169983
 20
-1307.467832080969
 30
0.0
 10
1423.511262997749
 20
-1307.467832080969
 30
0.0
 10
1423.511262997749
 20
-1307.467832080969
 30
0.0
 10
1418.089731157738
 20
-1307.467832080969
 30
0.0
 10
1418.089731157738
 20
-1307.467832080969
 30
0.0
 10
1415.562311569767
 20
-1307.467832080969
 30
0.0
 10
1413.43232534016
 20
-1305.581739726365
 30
0.0
 10
1413.12647618954
 20
-1303.07289416102
 30
0.0
  0
POLYLINE
  5
4B2
330
49F
100
AcDbEntity
  8
PUMP_-_FRONTE
 62
   250
100
AcDb2dPolyline
 66
     1
 10
0.0
 20
0.0
 30
0.0
  0
VERTEX
  5
4B3
330
4B2
100
AcDbEntity
  8
PUMP_-_FRONTE
 62
   250
100
AcDbVertex
100
AcDb2dVertex
 10
1411.493857612296
 20
-1221.035966602508
 30
0.0
  0
VERTEX
  5
4B4
330
4B2
100
AcDbEntity
  8
PUMP_-_FRONTE
 62
   250
100
AcDbVertex
100
AcDb2dVertex
 10
1411.493857612296
 20
-1221.035966602508
 30
0.0
  0
SEQEND
  5
4B5
330
4B2
100
AcDbEntity
  8
PUMP_-_FRONTE
 62
   250
  0
ENDBLK
  5
4A2
330
49F
100
AcDbEntity
  8
0
100
AcDbBlockEnd
  0
BLOCK
  5
4B8
330
4B6
100
AcDbEntity
  8
0
100
AcDbBlockBegin
  2
BLOCK_86
 70
     0
 10
0.0
 20
0.0
 30
0.0
  3
BLOCK_86
  1

  0
POLYLINE
  5
4BA
330
4B6
100
AcDbEntity
  8
PUMP_-_FRONTE
  6
AI-LINETYPE-3
 62
   250
100
AcDb2dPolyline
 66
     1
 10
0.0
 20
0.0
 30
0.0
  0
VERTEX
  5
4BB
330
4BA
100
AcDbEntity
  8
PUMP_-_FRONTE
  6
AI-LINETYPE-3
 62
   250
100
AcDbVertex
100
AcDb2dVertex
 10
1412.513606159446
 20
-1312.482994817773
 30
0.0
  0
VERTEX
  5
4BC
330
4BA
100
AcDbEntity
  8
PUMP_-_FRONTE
  6
AI-LINETYPE-3
 62
   250
100
AcDbVertex
100
AcDb2dVertex
 10
1303.147881896076
 20
-1203.117270554404
 30
0.0
  0
SEQEND
  5
4BE
330
4BA
100
AcDbEntity
  8
PUMP_-_FRONTE
  6
AI-LINETYPE-3
 62
   250
  0
ENDBLK
  5
4B9
330
4B6
100
AcDbEntity
  8
0
100
AcDbBlockEnd
  0
BLOCK
  5
4C1
330
4BF
100
AcDbEntity
  8
0
100
AcDbBlockBegin
  2
BLOCK_87
 70
     0
 10
0.0
 20
0.0
 30
0.0
  3
BLOCK_87
  1

  0
POLYLINE
  5
4C3
330
4BF
100
AcDbEntity
  8
PUMP_-_FRONTE
  6
AI-LINETYPE-4
 62
   250
100
AcDb2dPolyline
 66
     1
 10
0.0
 20
0.0
 30
0.0
  0
VERTEX
  5
4C4
330
4C3
100
AcDbEntity
  8
PUMP_-_FRONTE
  6
AI-LINETYPE-4
 62
   250
100
AcDbVertex
100
AcDb2dVertex
 10
1285.878148456722
 20
-1259.967832080969
 30
0.0
  0
VERTEX
  5
4C5
330
4C3
100
AcDbEntity
  8
PUMP_-_FRONTE
  6
AI-LINETYPE-4
 62
   250
100
AcDbVertex
100
AcDb2dVertex
 10
1432.017258079882
 20
-1259.967832080969
 30
0.0
  0
SEQEND
  5
4C7
330
4C3
100
AcDbEntity
  8
PUMP_-_FRONTE
  6
AI-LINETYPE-4
 62
   250
  0
POLYLINE
  5
4C8
330
4BF
100
AcDbEntity
  8
PUMP_-_FRONTE
  6
AI-LINETYPE-5
 62
   250
100
AcDb2dPolyline
 66
     1
 10
0.0
 20
0.0
 30
0.0
  0
VERTEX
  5
4C9
330
4C8
100
AcDbEntity
  8
PUMP_-_FRONTE
  6
AI-LINETYPE-5
 62
   250
100
AcDbVertex
100
AcDb2dVertex
 10
1359.998443433775
 20
-1191.677631974324
 30
0.0
  0
VERTEX
  5
4CA
330
4C8
100
AcDbEntity
  8
PUMP_-_FRONTE
  6
AI-LINETYPE-5
 62
   250
100
AcDbVertex
100
AcDb2dVertex
 10
1359.998442806636
 20
-1327.497076384814
 30
0.0
  0
SEQEND
  5
4CC
330
4C8
100
AcDbEntity
  8
PUMP_-_FRONTE
  6
AI-LINETYPE-5
 62
   250
  0
ENDBLK
  5
4C2
330
4BF
100
AcDbEntity
  8
0
100
AcDbBlockEnd
  0
BLOCK
  5
4CF
330
4CD
100
AcDbEntity
  8
0
100
AcDbBlockBegin
  2
BLOCK_88
 70
     0
 10
0.0
 20
0.0
 30
0.0
  3
BLOCK_88
  1

  0
SPLINE
  5
4D1
330
4CD
100
AcDbEntity
  8
PUMP_-_FRONTE
  6
AI-LINETYPE-6
 62
   250
100
AcDbSpline
210
0.0
220
0.0
230
1.0
 70
    11
 71
     3
 72
    20
 73
    16
 74
     0
 42
0.0000000001
 43
0.0000000001
 12
1.0
 22
0.0
 32
0.0
 13
1.0
 23
0.0
 33
0.0
 40
0.0
 40
0.0
 40
0.0
 40
0.0
 40
1.0
 40
1.0
 40
1.0
 40
2.0
 40
2.0
 40
2.0
 40
3.0
 40
3.0
 40
3.0
 40
4.0
 40
4.0
 40
4.0
 40
5.0
 40
5.0
 40
5.0
 40
5.0
 10
1297.498443422644
 20
-1259.967832080969
 30
0.0
 10
1297.498443422644
 20
-1225.450035216543
 30
0.0
 10
1325.480646558214
 20
-1197.467832080965
 30
0.0
 10
1359.998443422641
 20
-1197.467832080965
 30
0.0
 10
1394.516240287061
 20
-1197.467832080965
 30
0.0
 10
1422.498443422639
 20
-1225.450035216543
 30
0.0
 10
1422.498443422639
 20
-1259.967832080969
 30
0.0
 10
1422.498443422639
 20
-1294.485628945393
 30
0.0
 10
1394.516240287061
 20
-1322.467832080967
 30
0.0
 10
1359.998443422641
 20
-1322.467832080967
 30
0.0
 10
1325.480646558214
 20
-1322.467832080967
 30
0.0
 10
1297.498443422644
 20
-1294.485628945393
 30
0.0
 10
1297.498443422644
 20
-1259.967832080969
 30
0.0
 10
1297.498443422644
 20
-1259.967832080969
 30
0.0
 10
1297.498443422644
 20
-1259.967832080969
 30
0.0
 10
1297.498443422644
 20
-1259.967832080969
 30
0.0
  0
ENDBLK
  5
4D0
330
4CD
100
AcDbEntity
  8
0
100
AcDbBlockEnd
  0
BLOCK
  5
4D5
330
4D3
100
AcDbEntity
  8
0
100
AcDbBlockBegin
  2
BLOCK_89
 70
     0
 10
0.0
 20
0.0
 30
0.0
  3
BLOCK_89
  1

  0
POLYLINE
  5
4D7
330
4D3
100
AcDbEntity
  8
PUMP_-_FRONTE
  6
AI-LINETYPE-7
 62
   250
100
AcDb2dPolyline
 66
     1
 10
0.0
 20
0.0
 30
0.0
  0
VERTEX
  5
4D8
330
4D7
100
AcDbEntity
  8
PUMP_-_FRONTE
  6
AI-LINETYPE-7
 62
   250
100
AcDbVertex
100
AcDb2dVertex
 10
1303.577445266416
 20
-1316.388830237201
 30
0.0
  0
VERTEX
  5
4D9
330
4D7
100
AcDbEntity
  8
PUMP_-_FRONTE
  6
AI-LINETYPE-7
 62
   250
100
AcDbVertex
100
AcDb2dVertex
 10
1416.8490049492
 20
-1203.117270554404
 30
0.0
  0
SEQEND
  5
4DB
330
4D7
100
AcDbEntity
  8
PUMP_-_FRONTE
  6
AI-LINETYPE-7
 62
   250
  0
ENDBLK
  5
4D6
330
4D3
100
AcDbEntity
  8
0
100
AcDbBlockEnd
  0
BLOCK
  5
4DE
330
4DC
100
AcDbEntity
  8
0
100
AcDbBlockBegin
  2
BLOCK_90
 70
     0
 10
0.0
 20
0.0
 30
0.0
  3
BLOCK_90
  1

  0
POLYLINE
  5
4E0
330
4DC
100
AcDbEntity
  8
PUMP_-_FRONTE
  6
AI-LINETYPE-8
 62
   250
100
AcDb2dPolyline
 66
     1
 10
0.0
 20
0.0
 30
0.0
  0
VERTEX
  5
4E1
330
4E0
100
AcDbEntity
  8
PUMP_-_FRONTE
  6
AI-LINETYPE-8
 62
   250
100
AcDbVertex
100
AcDb2dVertex
 10
1359.998443422641
 20
-1259.967832080969
 30
0.0
  0
VERTEX
  5
4E2
330
4E0
100
AcDbEntity
  8
PUMP_-_FRONTE
  6
AI-LINETYPE-8
 62
   250
100
AcDbVertex
100
AcDb2dVertex
 10
1359.998443422641
 20
-1259.967832080969
 30
0.0
  0
SEQEND
  5
4E4
330
4E0
100
AcDbEntity
  8
PUMP_-_FRONTE
  6
AI-LINETYPE-8
 62
   250
  0
ENDBLK
  5
4DF
330
4DC
100
AcDbEntity
  8
0
100
AcDbBlockEnd
  0
BLOCK
  5
4E7
330
4E5
100
AcDbEntity
  8
0
100
AcDbBlockBegin
  2
BLOCK_91
 70
     0
 10
0.0
 20
0.0
 30
0.0
  3
BLOCK_91
  1

  0
POLYLINE
  5
4E9
330
4E5
100
AcDbEntity
  8
PUMP_-_FRONTE
  6
AI-LINETYPE-9
 62
   250
100
AcDb2dPolyline
 66
     1
 10
0.0
 20
0.0
 30
0.0
  0
VERTEX
  5
4EA
330
4E9
100
AcDbEntity
  8
PUMP_-_FRONTE
  6
AI-LINETYPE-9
 62
   250
100
AcDbVertex
100
AcDb2dVertex
 10
1359.998443422641
 20
-1259.967832080969
 30
0.0
  0
VERTEX
  5
4EB
330
4E9
100
AcDbEntity
  8
PUMP_-_FRONTE
  6
AI-LINETYPE-9
 62
   250
100
AcDbVertex
100
AcDb2dVertex
 10
1359.998443422641
 20
-1259.967832080969
 30
0.0
  0
SEQEND
  5
4ED
330
4E9
100
AcDbEntity
  8
PUMP_-_FRONTE
  6
AI-LINETYPE-9
 62
   250
  0
ENDBLK
  5
4E8
330
4E5
100
AcDbEntity
  8
0
100
AcDbBlockEnd
  0
BLOCK
  5
4F0
330
4EE
100
AcDbEntity
  8
0
100
AcDbBlockBegin
  2
BLOCK_92
 70
     0
 10
0.0
 20
0.0
 30
0.0
  3
BLOCK_92
  1

  0
POLYLINE
  5
4F2
330
4EE
100
AcDbEntity
  8
PUMP_-_FRONTE
  6
AI-LINETYPE-10
 62
   250
100
AcDb2dPolyline
 66
     1
 10
0.0
 20
0.0
 30
0.0
  0
VERTEX
  5
4F3
330
4F2
100
AcDbEntity
  8
PUMP_-_FRONTE
  6
AI-LINETYPE-10
 62
   250
100
AcDbVertex
100
AcDb2dVertex
 10
1359.998443422641
 20
-1259.967832080969
 30
0.0
  0
VERTEX
  5
4F4
330
4F2
100
AcDbEntity
  8
PUMP_-_FRONTE
  6
AI-LINETYPE-10
 62
   250
100
AcDbVertex
100
AcDb2dVertex
 10
1359.998443422641
 20
-1259.967832080969
 30
0.0
  0
SEQEND
  5
4F6
330
4F2
100
AcDbEntity
  8
PUMP_-_FRONTE
  6
AI-LINETYPE-10
 62
   250
  0
ENDBLK
  5
4F1
330
4EE
100
AcDbEntity
  8
0
100
AcDbBlockEnd
  0
BLOCK
  5
4F9
330
4F7
100
AcDbEntity
  8
0
100
AcDbBlockBegin
  2
BLOCK_93
 70
     0
 10
0.0
 20
0.0
 30
0.0
  3
BLOCK_93
  1

  0
MTEXT
  5
4FB
330
4F7
100
AcDbEntity
  8
PUMP_-_FRONTE
 62
   250
100
AcDbMText
 10
1224.438611890071
 20
-1124.137873454794
 30
0.0
 40
22.47922508965226
 41
0.0
 71
     7
 72
     1
  1
\fArial|b0|i0|c0|p34;\W1;DN 50 PN10 EN 1092-2
  0
POLYLINE
  5
4FC
330
4F7
100
AcDbEntity
  8
PUMP_-_FRONTE
 62
   250
100
AcDb2dPolyline
 66
     1
 10
0.0
 20
0.0
 30
0.0
  0
VERTEX
  5
4FD
330
4FC
100
AcDbEntity
  8
PUMP_-_FRONTE
 62
   250
100
AcDbVertex
100
AcDb2dVertex
 10
1298.434430187298
 20
-1228.626702765451
 30
0.0
  0
VERTEX
  5
4FE
330
4FC
100
AcDbEntity
  8
PUMP_-_FRONTE
 62
   250
100
AcDbVertex
100
AcDb2dVertex
 10
1219.488404981586
 20
-1132.067118103465
 30
0.0
  0
VERTEX
  5
4FF
330
4FC
100
AcDbEntity
  8
PUMP_-_FRONTE
 62
   250
100
AcDbVertex
100
AcDb2dVertex
 10
1564.091121972609
 20
-1132.067439629351
 30
0.0
  0
SEQEND
  5
500
330
4FC
100
AcDbEntity
  8
PUMP_-_FRONTE
 62
   250
  0
SPLINE
  5
501
330
4F7
100
AcDbEntity
  8
PUMP_-_FRONTE
100
AcDbSpline
210
0.0
220
0.0
230
1.0
 70
    11
 71
     3
 72
    17
 73
    13
 74
     0
 42
0.0000000001
 43
0.0000000001
 12
1.0
 22
0.0
 32
0.0
 13
1.0
 23
0.0
 33
0.0
 40
0.0
 40
0.0
 40
0.0
 40
0.0
 40
1.0
 40
1.0
 40
1.0
 40
2.0
 40
2.0
 40
2.0
 40
3.0
 40
3.0
 40
3.0
 40
4.0
 40
4.0
 40
4.0
 40
4.0
 10
1295.934428682346
 20
-1228.626702532043
 30
0.0
 10
1295.934427967878
 20
-1230.007414195551
 30
0.0
 10
1297.053715665445
 20
-1231.126703035105
 30
0.0
 10
1298.434427726524
 20
-1231.126704126927
 30
0.0
 10
1299.815139787609
 20
-1231.126705218749
 30
0.0
 10
1300.934428643558
 20
-1230.007418149383
 30
0.0
 10
1300.934429358026
 20
-1228.626706485875
 30
0.0
 10
1300.934430072494
 20
-1227.245994822364
 30
0.0
 10
1299.815142374927
 20
-1226.126705982804
 30
0.0
 10
1298.434430313848
 20
-1226.126704890991
 30
0.0
 10
1297.053718252762
 20
-1226.126703799166
 30
0.0
 10
1295.934429396813
 20
-1227.245990868532
 30
0.0
 10
1295.934428682346
 20
-1228.626702532043
 30
0.0
  0
HATCH
  5
502
330
4F7
100
AcDbEntity
  8
PUMP_-_FRONTE
 62
   250
100
AcDbHatch
 10
0.0
 20
0.0
 30
0.0
210
0.0
220
0.0
230
1.0
  2
SOLID
 70
     1
 71
     0
 91
        1
 92
        1
 93
        1
 72
     4
 94
        3
 73
     0
 74
     1
 95
       17
 96
       13
 40
0.0
 40
0.0
 40
0.0
 40
0.0
 40
1.0
 40
1.0
 40
1.0
 40
2.0
 40
2.0
 40
2.0
 40
3.0
 40
3.0
 40
3.0
 40
4.0
 40
4.0
 40
4.0
 40
4.0
 10
1295.934428682346
 20
-1228.626702532043
 10
1295.934427967878
 20
-1230.007414195551
 10
1297.053715665445
 20
-1231.126703035105
 10
1298.434427726524
 20
-1231.126704126927
 10
1299.815139787609
 20
-1231.126705218749
 10
1300.934428643558
 20
-1230.007418149383
 10
1300.934429358026
 20
-1228.626706485875
 10
1300.934430072494
 20
-1227.245994822364
 10
1299.815142374927
 20
-1226.126705982804
 10
1298.434430313848
 20
-1226.126704890991
 10
1297.053718252762
 20
-1226.126703799166
 10
1295.934429396813
 20
-1227.245990868532
 10
1295.934428682346
 20
-1228.626702532043
 97
        0
 75
     2
 76
     1
 98
        0
  0
ENDBLK
  5
4FA
330
4F7
100
AcDbEntity
  8
0
100
AcDbBlockEnd
  0
BLOCK
  5
50D
330
50B
100
AcDbEntity
  8
0
100
AcDbBlockBegin
  2
BLOCK_94
 70
     0
 10
0.0
 20
0.0
 30
0.0
  3
BLOCK_94
  1

  0
POLYLINE
  5
50F
330
50B
100
AcDbEntity
  8
PUMP_-_FRONTE
 62
   250
100
AcDb2dPolyline
 66
     1
 10
0.0
 20
0.0
 30
0.0
  0
VERTEX
  5
510
330
50F
100
AcDbEntity
  8
PUMP_-_FRONTE
 62
   250
100
AcDbVertex
100
AcDb2dVertex
 10
1244.437993544032
 20
-1390.826316589606
 30
0.0
  0
VERTEX
  5
511
330
50F
100
AcDbEntity
  8
PUMP_-_FRONTE
 62
   250
100
AcDbVertex
100
AcDb2dVertex
 10
1428.693536059241
 20
-1390.82635291837
 30
0.0
  0
SEQEND
  5
512
330
50F
100
AcDbEntity
  8
PUMP_-_FRONTE
 62
   250
  0
ENDBLK
  5
50E
330
50B
100
AcDbEntity
  8
0
100
AcDbBlockEnd
  0
BLOCK
  5
515
330
513
100
AcDbEntity
  8
0
100
AcDbBlockBegin
  2
BLOCK_95
 70
     0
 10
0.0
 20
0.0
 30
0.0
  3
BLOCK_95
  1

  0
POLYLINE
  5
517
330
513
100
AcDbEntity
  8
PUMP_-_FRONTE
100
AcDb2dPolyline
 66
     1
 10
0.0
 20
0.0
 30
0.0
  0
VERTEX
  5
518
330
517
100
AcDbEntity
  8
PUMP_-_FRONTE
100
AcDbVertex
100
AcDb2dVertex
 10
1404.407600672863
 20
-1387.674774612658
 30
0.0
  0
VERTEX
  5
519
330
517
100
AcDbEntity
  8
PUMP_-_FRONTE
100
AcDbVertex
100
AcDb2dVertex
 10
1385.498347316896
 20
-1390.826305236872
 30
0.0
  0
VERTEX
  5
51A
330
517
100
AcDbEntity
  8
PUMP_-_FRONTE
100
AcDbVertex
100
AcDb2dVertex
 10
1404.407596945317
 20
-1393.977858566554
 30
0.0
  0
VERTEX
  5
51B
330
517
100
AcDbEntity
  8
PUMP_-_FRONTE
100
AcDbVertex
100
AcDb2dVertex
 10
1404.407600672863
 20
-1387.674774612658
 30
0.0
  0
SEQEND
  5
51D
330
517
100
AcDbEntity
  8
PUMP_-_FRONTE
  0
HATCH
  5
51C
330
513
100
AcDbEntity
  8
PUMP_-_FRONTE
 62
   250
100
AcDbHatch
 10
0.0
 20
0.0
 30
0.0
210
0.0
220
0.0
230
1.0
  2
SOLID
 70
     1
 71
     0
 91
        1
 92
        1
 93
        3
 72
     1
 10
1404.407600672863
 20
-1387.674774612658
 11
1385.498347316896
 21
-1390.826305236872
 72
     1
 10
1385.498347316896
 20
-1390.826305236872
 11
1404.407596945317
 21
-1393.977858566554
 72
     1
 10
1404.407596945317
 20
-1393.977858566554
 11
1404.407600672863
 21
-1387.674774612658
 97
        0
 75
     2
 76
     1
 98
        0
  0
ENDBLK
  5
516
330
513
100
AcDbEntity
  8
0
100
AcDbBlockEnd
  0
BLOCK
  5
520
330
51E
100
AcDbEntity
  8
0
100
AcDbBlockBegin
  2
BLOCK_96
 70
     0
 10
0.0
 20
0.0
 30
0.0
  3
BLOCK_96
  1

  0
POLYLINE
  5
522
330
51E
100
AcDbEntity
  8
PUMP_-_FRONTE
100
AcDb2dPolyline
 66
     1
 10
0.0
 20
0.0
 30
0.0
  0
VERTEX
  5
523
330
522
100
AcDbEntity
  8
PUMP_-_FRONTE
100
AcDbVertex
100
AcDb2dVertex
 10
1315.589095863202
 20
-1387.674810941426
 30
0.0
  0
VERTEX
  5
524
330
522
100
AcDbEntity
  8
PUMP_-_FRONTE
100
AcDbVertex
100
AcDb2dVertex
 10
1334.498345491617
 20
-1390.82636427112
 30
0.0
  0
VERTEX
  5
525
330
522
100
AcDbEntity
  8
PUMP_-_FRONTE
100
AcDbVertex
100
AcDb2dVertex
 10
1315.589092135656
 20
-1393.977894895318
 30
0.0
  0
VERTEX
  5
526
330
522
100
AcDbEntity
  8
PUMP_-_FRONTE
100
AcDbVertex
100
AcDb2dVertex
 10
1315.589095863202
 20
-1387.674810941426
 30
0.0
  0
SEQEND
  5
528
330
522
100
AcDbEntity
  8
PUMP_-_FRONTE
  0
HATCH
  5
527
330
51E
100
AcDbEntity
  8
PUMP_-_FRONTE
 62
   250
100
AcDbHatch
 10
0.0
 20
0.0
 30
0.0
210
0.0
220
0.0
230
1.0
  2
SOLID
 70
     1
 71
     0
 91
        1
 92
        1
 93
        3
 72
     1
 10
1315.589095863202
 20
-1387.674810941426
 11
1334.498345491617
 21
-1390.82636427112
 72
     1
 10
1334.498345491617
 20
-1390.82636427112
 11
1315.589092135656
 21
-1393.977894895318
 72
     1
 10
1315.589092135656
 20
-1393.977894895318
 11
1315.589095863202
 21
-1387.674810941426
 97
        0
 75
     2
 76
     1
 98
        0
  0
ENDBLK
  5
521
330
51E
100
AcDbEntity
  8
0
100
AcDbBlockEnd
  0
BLOCK
  5
52B
330
529
100
AcDbEntity
  8
0
100
AcDbBlockBegin
  2
BLOCK_97
 70
     0
 10
0.0
 20
0.0
 30
0.0
  3
BLOCK_97
  1

  0
MTEXT
  5
52D
330
529
100
AcDbEntity
  8
PUMP_-_FRONTE
 62
   250
100
AcDbMText
 10
1254.862250120312
 20
-1383.608913499584
 30
0.0
 40
22.47899999438025
 41
0.0
 71
     7
 72
     1
  1
\fArial|b0|i0|c0|p34;\W1;G2”
  0
ENDBLK
  5
52C
330
529
100
AcDbEntity
  8
0
100
AcDbBlockEnd
  0
BLOCK
  5
531
330
52F
100
AcDbEntity
  8
0
100
AcDbBlockBegin
  2
BLOCK_98
 70
     0
 10
0.0
 20
0.0
 30
0.0
  3
BLOCK_98
  1

  0
POLYLINE
  5
533
330
52F
100
AcDbEntity
  8
PUMP_-_ALTO
 62
   250
100
AcDb2dPolyline
 66
     1
 10
0.0
 20
0.0
 30
0.0
  0
VERTEX
  5
534
330
533
100
AcDbEntity
  8
PUMP_-_ALTO
 62
   250
100
AcDbVertex
100
AcDb2dVertex
 10
887.2772634900834
 20
-2109.496886533509
 30
0.0
  0
VERTEX
  5
535
330
533
100
AcDbEntity
  8
PUMP_-_ALTO
 62
   250
100
AcDbVertex
100
AcDb2dVertex
 10
632.4214272131962
 20
-2109.496886533509
 30
0.0
  0
SEQEND
  5
536
330
533
100
AcDbEntity
  8
PUMP_-_ALTO
 62
   250
  0
ENDBLK
  5
532
330
52F
100
AcDbEntity
  8
0
100
AcDbBlockEnd
  0
BLOCK
  5
539
330
537
100
AcDbEntity
  8
0
100
AcDbBlockBegin
  2
BLOCK_99
 70
     0
 10
0.0
 20
0.0
 30
0.0
  3
BLOCK_99
  1

  0
POLYLINE
  5
53B
330
537
100
AcDbEntity
  8
PUMP_-_ALTO
 62
   250
100
AcDb2dPolyline
 66
     1
 10
0.0
 20
0.0
 30
0.0
  0
VERTEX
  5
53C
330
53B
100
AcDbEntity
  8
PUMP_-_ALTO
 62
   250
100
AcDbVertex
100
AcDb2dVertex
 10
886.6378569837462
 20
-1905.007717776669
 30
0.0
  0
VERTEX
  5
53D
330
53B
100
AcDbEntity
  8
PUMP_-_ALTO
 62
   250
100
AcDbVertex
100
AcDb2dVertex
 10
632.4214272131962
 20
-1905.007717776669
 30
0.0
  0
SEQEND
  5
53E
330
53B
100
AcDbEntity
  8
PUMP_-_ALTO
 62
   250
  0
ENDBLK
  5
53A
330
537
100
AcDbEntity
  8
0
100
AcDbBlockEnd
  0
BLOCK
  5
541
330
53F
100
AcDbEntity
  8
0
100
AcDbBlockBegin
  2
BLOCK_100
 70
     0
 10
0.0
 20
0.0
 30
0.0
  3
BLOCK_100
  1

  0
POLYLINE
  5
543
330
53F
100
AcDbEntity
  8
PUMP_-_ALTO
 62
   250
100
AcDb2dPolyline
 66
     1
 10
0.0
 20
0.0
 30
0.0
  0
VERTEX
  5
544
330
543
100
AcDbEntity
  8
PUMP_-_ALTO
 62
   250
100
AcDbVertex
100
AcDb2dVertex
 10
635.7547605465297
 20
-2109.496886533509
 30
0.0
  0
VERTEX
  5
545
330
543
100
AcDbEntity
  8
PUMP_-_ALTO
 62
   250
100
AcDbVertex
100
AcDb2dVertex
 10
635.7547605465297
 20
-1905.007717776669
 30
0.0
  0
SEQEND
  5
546
330
543
100
AcDbEntity
  8
PUMP_-_ALTO
 62
   250
  0
ENDBLK
  5
542
330
53F
100
AcDbEntity
  8
0
100
AcDbBlockEnd
  0
BLOCK
  5
549
330
547
100
AcDbEntity
  8
0
100
AcDbBlockBegin
  2
BLOCK_101
 70
     0
 10
0.0
 20
0.0
 30
0.0
  3
BLOCK_101
  1

  0
POLYLINE
  5
54B
330
547
100
AcDbEntity
  8
PUMP_-_ALTO
100
AcDb2dPolyline
 66
     1
 10
0.0
 20
0.0
 30
0.0
  0
VERTEX
  5
54C
330
54B
100
AcDbEntity
  8
PUMP_-_ALTO
100
AcDbVertex
100
AcDb2dVertex
 10
635.7547605465297
 20
-2109.496886533509
 30
0.0
  0
VERTEX
  5
54D
330
54B
100
AcDbEntity
  8
PUMP_-_ALTO
100
AcDbVertex
100
AcDb2dVertex
 10
632.4214272131962
 20
-2089.496886533508
 30
0.0
  0
VERTEX
  5
54E
330
54B
100
AcDbEntity
  8
PUMP_-_ALTO
100
AcDbVertex
100
AcDb2dVertex
 10
639.0880938798696
 20
-2089.496886533508
 30
0.0
  0
VERTEX
  5
54F
330
54B
100
AcDbEntity
  8
PUMP_-_ALTO
100
AcDbVertex
100
AcDb2dVertex
 10
635.7547605465297
 20
-2109.496886533509
 30
0.0
  0
SEQEND
  5
551
330
54B
100
AcDbEntity
  8
PUMP_-_ALTO
  0
HATCH
  5
550
330
547
100
AcDbEntity
  8
PUMP_-_ALTO
 62
   250
100
AcDbHatch
 10
0.0
 20
0.0
 30
0.0
210
0.0
220
0.0
230
1.0
  2
SOLID
 70
     1
 71
     0
 91
        1
 92
        1
 93
        3
 72
     1
 10
635.7547605465297
 20
-2109.496886533509
 11
632.4214272131962
 21
-2089.496886533508
 72
     1
 10
632.4214272131962
 20
-2089.496886533508
 11
639.0880938798696
 21
-2089.496886533508
 72
     1
 10
639.0880938798696
 20
-2089.496886533508
 11
635.7547605465297
 21
-2109.496886533509
 97
        0
 75
     2
 76
     1
 98
        0
  0
ENDBLK
  5
54A
330
547
100
AcDbEntity
  8
0
100
AcDbBlockEnd
  0
BLOCK
  5
554
330
552
100
AcDbEntity
  8
0
100
AcDbBlockBegin
  2
BLOCK_102
 70
     0
 10
0.0
 20
0.0
 30
0.0
  3
BLOCK_102
  1

  0
POLYLINE
  5
556
330
552
100
AcDbEntity
  8
PUMP_-_ALTO
100
AcDb2dPolyline
 66
     1
 10
0.0
 20
0.0
 30
0.0
  0
VERTEX
  5
557
330
556
100
AcDbEntity
  8
PUMP_-_ALTO
100
AcDbVertex
100
AcDb2dVertex
 10
635.7547605465297
 20
-1905.007717776669
 30
0.0
  0
VERTEX
  5
558
330
556
100
AcDbEntity
  8
PUMP_-_ALTO
100
AcDbVertex
100
AcDb2dVertex
 10
632.4214272131962
 20
-1925.00771777667
 30
0.0
  0
VERTEX
  5
559
330
556
100
AcDbEntity
  8
PUMP_-_ALTO
100
AcDbVertex
100
AcDb2dVertex
 10
639.0880938798696
 20
-1925.00771777667
 30
0.0
  0
VERTEX
  5
55A
330
556
100
AcDbEntity
  8
PUMP_-_ALTO
100
AcDbVertex
100
AcDb2dVertex
 10
635.7547605465297
 20
-1905.007717776669
 30
0.0
  0
SEQEND
  5
55C
330
556
100
AcDbEntity
  8
PUMP_-_ALTO
  0
HATCH
  5
55B
330
552
100
AcDbEntity
  8
PUMP_-_ALTO
 62
   250
100
AcDbHatch
 10
0.0
 20
0.0
 30
0.0
210
0.0
220
0.0
230
1.0
  2
SOLID
 70
     1
 71
     0
 91
        1
 92
        1
 93
        3
 72
     1
 10
635.7547605465297
 20
-1905.007717776669
 11
632.4214272131962
 21
-1925.00771777667
 72
     1
 10
632.4214272131962
 20
-1925.00771777667
 11
639.0880938798696
 21
-1925.00771777667
 72
     1
 10
639.0880938798696
 20
-1925.00771777667
 11
635.7547605465297
 21
-1905.007717776669
 97
        0
 75
     2
 76
     1
 98
        0
  0
ENDBLK
  5
555
330
552
100
AcDbEntity
  8
0
100
AcDbBlockEnd
  0
BLOCK
  5
55F
330
55D
100
AcDbEntity
  8
0
100
AcDbBlockBegin
  2
BLOCK_103
 70
     0
 10
0.0
 20
0.0
 30
0.0
  3
BLOCK_103
  1

  0
MTEXT
  5
561
330
55D
100
AcDbEntity
  8
PUMP_-_ALTO
 62
   250
100
AcDbMText
 10
582.352158294896
 20
-2033.73872303452
 30
0.0
 40
22.47899999438025
 41
0.0
 71
     7
 72
     1
  1
\fArial|b0|i0|c0|p34;\W1;205
 11
6.123233995736766E-17
 21
1.0
 31
0.0
  0
MTEXT
  5
562
330
55D
100
AcDbEntity
  8
PUMP_-_ALTO
 62
   250
100
AcDbMText
 10
620.4514692662739
 20
-2038.14155506467
 30
0.0
 40
22.47899999438025
 41
0.0
 71
     7
 72
     1
  1
\fArial|b0|i0|c0|p34;\W1;[8,1]
 11
6.123233995736766E-17
 21
1.0
 31
0.0
  0
ENDBLK
  5
560
330
55D
100
AcDbEntity
  8
0
100
AcDbBlockEnd
  0
BLOCK
  5
565
330
563
100
AcDbEntity
  8
0
100
AcDbBlockBegin
  2
BLOCK_104
 70
     0
 10
0.0
 20
0.0
 30
0.0
  3
BLOCK_104
  1

  0
INSERT
  5
568
330
563
100
AcDbEntity
  8
PUMP_-_ALTO
100
AcDbBlockReference
  2
BLOCK_105
 10
0.0
 20
0.0
 30
0.0
  0
INSERT
  5
570
330
563
100
AcDbEntity
  8
PUMP_-_ALTO
100
AcDbBlockReference
  2
BLOCK_106
 10
0.0
 20
0.0
 30
0.0
  0
INSERT
  5
578
330
563
100
AcDbEntity
  8
PUMP_-_ALTO
100
AcDbBlockReference
  2
BLOCK_107
 10
0.0
 20
0.0
 30
0.0
  0
INSERT
  5
580
330
563
100
AcDbEntity
  8
PUMP_-_ALTO
100
AcDbBlockReference
  2
BLOCK_108
 10
0.0
 20
0.0
 30
0.0
  0
INSERT
  5
588
330
563
100
AcDbEntity
  8
PUMP_-_ALTO
100
AcDbBlockReference
  2
BLOCK_109
 10
0.0
 20
0.0
 30
0.0
  0
INSERT
  5
58D
330
563
100
AcDbEntity
  8
PUMP_-_ALTO
100
AcDbBlockReference
  2
BLOCK_110
 10
0.0
 20
0.0
 30
0.0
  0
INSERT
  5
592
330
563
100
AcDbEntity
  8
PUMP_-_ALTO
100
AcDbBlockReference
  2
BLOCK_111
 10
0.0
 20
0.0
 30
0.0
  0
INSERT
  5
59A
330
563
100
AcDbEntity
  8
PUMP_-_ALTO
100
AcDbBlockReference
  2
BLOCK_112
 10
0.0
 20
0.0
 30
0.0
  0
INSERT
  5
5A2
330
563
100
AcDbEntity
  8
PUMP_-_ALTO
100
AcDbBlockReference
  2
BLOCK_113
 10
0.0
 20
0.0
 30
0.0
  0
INSERT
  5
5AA
330
563
100
AcDbEntity
  8
PUMP_-_ALTO
100
AcDbBlockReference
  2
BLOCK_114
 10
0.0
 20
0.0
 30
0.0
  0
INSERT
  5
5AF
330
563
100
AcDbEntity
  8
PUMP_-_ALTO
100
AcDbBlockReference
  2
BLOCK_115
 10
0.0
 20
0.0
 30
0.0
  0
INSERT
  5
5B7
330
563
100
AcDbEntity
  8
PUMP_-_ALTO
100
AcDbBlockReference
  2
BLOCK_116
 10
0.0
 20
0.0
 30
0.0
  0
INSERT
  5
5BC
330
563
100
AcDbEntity
  8
PUMP_-_ALTO
100
AcDbBlockReference
  2
BLOCK_117
 10
0.0
 20
0.0
 30
0.0
  0
INSERT
  5
5C4
330
563
100
AcDbEntity
  8
PUMP_-_ALTO
100
AcDbBlockReference
  2
BLOCK_118
 10
0.0
 20
0.0
 30
0.0
  0
INSERT
  5
5CC
330
563
100
AcDbEntity
  8
PUMP_-_ALTO
100
AcDbBlockReference
  2
BLOCK_119
 10
0.0
 20
0.0
 30
0.0
  0
INSERT
  5
5D4
330
563
100
AcDbEntity
  8
PUMP_-_ALTO
100
AcDbBlockReference
  2
BLOCK_120
 10
0.0
 20
0.0
 30
0.0
  0
INSERT
  5
5DC
330
563
100
AcDbEntity
  8
PUMP_-_ALTO
100
AcDbBlockReference
  2
BLOCK_121
 10
0.0
 20
0.0
 30
0.0
  0
INSERT
  5
5E4
330
563
100
AcDbEntity
  8
PUMP_-_ALTO
100
AcDbBlockReference
  2
BLOCK_122
 10
0.0
 20
0.0
 30
0.0
  0
INSERT
  5
5E9
330
563
100
AcDbEntity
  8
PUMP_-_ALTO
100
AcDbBlockReference
  2
BLOCK_123
 10
0.0
 20
0.0
 30
0.0
  0
INSERT
  5
5EE
330
563
100
AcDbEntity
  8
PUMP_-_ALTO
100
AcDbBlockReference
  2
BLOCK_124
 10
0.0
 20
0.0
 30
0.0
  0
INSERT
  5
5F6
330
563
100
AcDbEntity
  8
PUMP_-_ALTO
100
AcDbBlockReference
  2
BLOCK_125
 10
0.0
 20
0.0
 30
0.0
  0
INSERT
  5
5FE
330
563
100
AcDbEntity
  8
PUMP_-_ALTO
100
AcDbBlockReference
  2
BLOCK_126
 10
0.0
 20
0.0
 30
0.0
  0
INSERT
  5
606
330
563
100
AcDbEntity
  8
PUMP_-_ALTO
100
AcDbBlockReference
  2
BLOCK_127
 10
0.0
 20
0.0
 30
0.0
  0
INSERT
  5
60E
330
563
100
AcDbEntity
  8
PUMP_-_ALTO
100
AcDbBlockReference
  2
BLOCK_128
 10
0.0
 20
0.0
 30
0.0
  0
INSERT
  5
613
330
563
100
AcDbEntity
  8
PUMP_-_ALTO
100
AcDbBlockReference
  2
BLOCK_129
 10
0.0
 20
0.0
 30
0.0
  0
ENDBLK
  5
566
330
563
100
AcDbEntity
  8
0
100
AcDbBlockEnd
  0
BLOCK
  5
569
330
567
100
AcDbEntity
  8
0
100
AcDbBlockBegin
  2
BLOCK_105
 70
     0
 10
0.0
 20
0.0
 30
0.0
  3
BLOCK_105
  1

  0
POLYLINE
  5
56B
330
567
100
AcDbEntity
  8
PUMP_-_ALTO
 62
   250
100
AcDb2dPolyline
 66
     1
 10
0.0
 20
0.0
 30
0.0
  0
VERTEX
  5
56C
330
56B
100
AcDbEntity
  8
PUMP_-_ALTO
 62
   250
100
AcDbVertex
100
AcDb2dVertex
 10
1036.031042551662
 20
-1971.349621537114
 30
0.0
  0
VERTEX
  5
56D
330
56B
100
AcDbEntity
  8
PUMP_-_ALTO
 62
   250
100
AcDbVertex
100
AcDb2dVertex
 10
1036.031042551662
 20
-2046.649738659587
 30
0.0
  0
SEQEND
  5
56E
330
56B
100
AcDbEntity
  8
PUMP_-_ALTO
 62
   250
  0
ENDBLK
  5
56A
330
567
100
AcDbEntity
  8
0
100
AcDbBlockEnd
  0
BLOCK
  5
571
330
56F
100
AcDbEntity
  8
0
100
AcDbBlockBegin
  2
BLOCK_106
 70
     0
 10
0.0
 20
0.0
 30
0.0
  3
BLOCK_106
  1

  0
POLYLINE
  5
573
330
56F
100
AcDbEntity
  8
PUMP_-_ALTO
 62
   250
100
AcDb2dPolyline
 66
     1
 10
0.0
 20
0.0
 30
0.0
  0
VERTEX
  5
574
330
573
100
AcDbEntity
  8
PUMP_-_ALTO
 62
   250
100
AcDbVertex
100
AcDb2dVertex
 10
1050.619617274729
 20
-1971.349621537114
 30
0.0
  0
VERTEX
  5
575
330
573
100
AcDbEntity
  8
PUMP_-_ALTO
 62
   250
100
AcDbVertex
100
AcDb2dVertex
 10
1050.619617274729
 20
-2046.649738659587
 30
0.0
  0
SEQEND
  5
576
330
573
100
AcDbEntity
  8
PUMP_-_ALTO
 62
   250
  0
ENDBLK
  5
572
330
56F
100
AcDbEntity
  8
0
100
AcDbBlockEnd
  0
BLOCK
  5
579
330
577
100
AcDbEntity
  8
0
100
AcDbBlockBegin
  2
BLOCK_107
 70
     0
 10
0.0
 20
0.0
 30
0.0
  3
BLOCK_107
  1

  0
POLYLINE
  5
57B
330
577
100
AcDbEntity
  8
PUMP_-_ALTO
 62
   250
100
AcDb2dPolyline
 66
     1
 10
0.0
 20
0.0
 30
0.0
  0
VERTEX
  5
57C
330
57B
100
AcDbEntity
  8
PUMP_-_ALTO
 62
   250
100
AcDbVertex
100
AcDb2dVertex
 10
1024.021100542487
 20
-2008.99968009835
 30
0.0
  0
VERTEX
  5
57D
330
57B
100
AcDbEntity
  8
PUMP_-_ALTO
 62
   250
100
AcDbVertex
100
AcDb2dVertex
 10
1024.021100542487
 20
-2044.681913439239
 30
0.0
  0
SEQEND
  5
57E
330
57B
100
AcDbEntity
  8
PUMP_-_ALTO
 62
   250
  0
ENDBLK
  5
57A
330
577
100
AcDbEntity
  8
0
100
AcDbBlockEnd
  0
BLOCK
  5
581
330
57F
100
AcDbEntity
  8
0
100
AcDbBlockBegin
  2
BLOCK_108
 70
     0
 10
0.0
 20
0.0
 30
0.0
  3
BLOCK_108
  1

  0
POLYLINE
  5
583
330
57F
100
AcDbEntity
  8
PUMP_-_ALTO
 62
   250
100
AcDb2dPolyline
 66
     1
 10
0.0
 20
0.0
 30
0.0
  0
VERTEX
  5
584
330
583
100
AcDbEntity
  8
PUMP_-_ALTO
 62
   250
100
AcDbVertex
100
AcDb2dVertex
 10
1018.431689558689
 20
-1977.36651962691
 30
0.0
  0
VERTEX
  5
585
330
583
100
AcDbEntity
  8
PUMP_-_ALTO
 62
   250
100
AcDbVertex
100
AcDb2dVertex
 10
1019.430557661297
 20
-2041.631708672399
 30
0.0
  0
SEQEND
  5
586
330
583
100
AcDbEntity
  8
PUMP_-_ALTO
 62
   250
  0
ENDBLK
  5
582
330
57F
100
AcDbEntity
  8
0
100
AcDbBlockEnd
  0
BLOCK
  5
589
330
587
100
AcDbEntity
  8
0
100
AcDbBlockBegin
  2
BLOCK_109
 70
     0
 10
0.0
 20
0.0
 30
0.0
  3
BLOCK_109
  1

  0
SPLINE
  5
58B
330
587
100
AcDbEntity
  8
PUMP_-_ALTO
 62
   250
100
AcDbSpline
210
0.0
220
0.0
230
1.0
 70
     8
 71
     3
 72
     8
 73
     4
 74
     0
 42
0.0000000001
 43
0.0000000001
 12
1.0
 22
0.0
 32
0.0
 13
1.0
 23
0.0
 33
0.0
 40
0.0
 40
0.0
 40
0.0
 40
0.0
 40
1.0
 40
1.0
 40
1.0
 40
1.0
 10
1047.47325950321
 20
-2080.364146780129
 30
0.0
 10
1048.571663927298
 20
-2080.364146780129
 30
0.0
 10
1049.472668409545
 20
-2079.49405686557
 30
0.0
 10
1049.51100217112
 20
-2078.396321559781
 30
0.0
  0
ENDBLK
  5
58A
330
587
100
AcDbEntity
  8
0
100
AcDbBlockEnd
  0
BLOCK
  5
58E
330
58C
100
AcDbEntity
  8
0
100
AcDbBlockBegin
  2
BLOCK_110
 70
     0
 10
0.0
 20
0.0
 30
0.0
  3
BLOCK_110
  1

  0
SPLINE
  5
590
330
58C
100
AcDbEntity
  8
PUMP_-_ALTO
 62
   250
100
AcDbSpline
210
0.0
220
0.0
230
1.0
 70
     8
 71
     3
 72
     8
 73
     4
 74
     0
 42
0.0000000001
 43
0.0000000001
 12
1.0
 22
0.0
 32
0.0
 13
1.0
 23
0.0
 33
0.0
 40
0.0
 40
0.0
 40
0.0
 40
0.0
 40
1.0
 40
1.0
 40
1.0
 40
1.0
 10
1037.139657655267
 20
-2078.396321559781
 30
0.0
 10
1037.177991416843
 20
-2079.49405686557
 30
0.0
 10
1038.078995899089
 20
-2080.364146780129
 30
0.0
 10
1039.177400323178
 20
-2080.364146780129
 30
0.0
  0
ENDBLK
  5
58F
330
58C
100
AcDbEntity
  8
0
100
AcDbBlockEnd
  0
BLOCK
  5
593
330
591
100
AcDbEntity
  8
0
100
AcDbBlockBegin
  2
BLOCK_111
 70
     0
 10
0.0
 20
0.0
 30
0.0
  3
BLOCK_111
  1

  0
POLYLINE
  5
595
330
591
100
AcDbEntity
  8
PUMP_-_ALTO
 62
   250
100
AcDb2dPolyline
 66
     1
 10
0.0
 20
0.0
 30
0.0
  0
VERTEX
  5
596
330
595
100
AcDbEntity
  8
PUMP_-_ALTO
 62
   250
100
AcDbVertex
100
AcDb2dVertex
 10
1047.47325950321
 20
-2080.364146780129
 30
0.0
  0
VERTEX
  5
597
330
595
100
AcDbEntity
  8
PUMP_-_ALTO
 62
   250
100
AcDbVertex
100
AcDb2dVertex
 10
1039.177400323178
 20
-2080.364146780129
 30
0.0
  0
SEQEND
  5
598
330
595
100
AcDbEntity
  8
PUMP_-_ALTO
 62
   250
  0
ENDBLK
  5
594
330
591
100
AcDbEntity
  8
0
100
AcDbBlockEnd
  0
BLOCK
  5
59B
330
599
100
AcDbEntity
  8
0
100
AcDbBlockBegin
  2
BLOCK_112
 70
     0
 10
0.0
 20
0.0
 30
0.0
  3
BLOCK_112
  1

  0
POLYLINE
  5
59D
330
599
100
AcDbEntity
  8
PUMP_-_ALTO
 62
   250
100
AcDb2dPolyline
 66
     1
 10
0.0
 20
0.0
 30
0.0
  0
VERTEX
  5
59E
330
59D
100
AcDbEntity
  8
PUMP_-_ALTO
 62
   250
100
AcDbVertex
100
AcDb2dVertex
 10
1047.473259503204
 20
-2044.750374743554
 30
0.0
  0
VERTEX
  5
59F
330
59D
100
AcDbEntity
  8
PUMP_-_ALTO
 62
   250
100
AcDbVertex
100
AcDb2dVertex
 10
1039.177400323171
 20
-2044.750374743554
 30
0.0
  0
SEQEND
  5
5A0
330
59D
100
AcDbEntity
  8
PUMP_-_ALTO
 62
   250
  0
ENDBLK
  5
59C
330
599
100
AcDbEntity
  8
0
100
AcDbBlockEnd
  0
BLOCK
  5
5A3
330
5A1
100
AcDbEntity
  8
0
100
AcDbBlockBegin
  2
BLOCK_113
 70
     0
 10
0.0
 20
0.0
 30
0.0
  3
BLOCK_113
  1

  0
POLYLINE
  5
5A5
330
5A1
100
AcDbEntity
  8
PUMP_-_ALTO
 62
   250
100
AcDb2dPolyline
 66
     1
 10
0.0
 20
0.0
 30
0.0
  0
VERTEX
  5
5A6
330
5A5
100
AcDbEntity
  8
PUMP_-_ALTO
 62
   250
100
AcDbVertex
100
AcDb2dVertex
 10
1047.473259503204
 20
-2063.16330473067
 30
0.0
  0
VERTEX
  5
5A7
330
5A5
100
AcDbEntity
  8
PUMP_-_ALTO
 62
   250
100
AcDbVertex
100
AcDb2dVertex
 10
1039.177400323171
 20
-2063.16330473067
 30
0.0
  0
SEQEND
  5
5A8
330
5A5
100
AcDbEntity
  8
PUMP_-_ALTO
 62
   250
  0
ENDBLK
  5
5A4
330
5A1
100
AcDbEntity
  8
0
100
AcDbBlockEnd
  0
BLOCK
  5
5AB
330
5A9
100
AcDbEntity
  8
0
100
AcDbBlockBegin
  2
BLOCK_114
 70
     0
 10
0.0
 20
0.0
 30
0.0
  3
BLOCK_114
  1

  0
SPLINE
  5
5AD
330
5A9
100
AcDbEntity
  8
PUMP_-_ALTO
 62
   250
100
AcDbSpline
210
0.0
220
0.0
230
1.0
 70
     8
 71
     3
 72
     8
 73
     4
 74
     0
 42
0.0000000001
 43
0.0000000001
 12
1.0
 22
0.0
 32
0.0
 13
1.0
 23
0.0
 33
0.0
 40
0.0
 40
0.0
 40
0.0
 40
0.0
 40
1.0
 40
1.0
 40
1.0
 40
1.0
 10
1036.031042551662
 20
-2046.649738659587
 30
0.0
 10
1035.992708790083
 20
-2045.552003353798
 30
0.0
 10
1035.091704307827
 20
-2044.681913439239
 30
0.0
 10
1033.993299883745
 20
-2044.681913439239
 30
0.0
  0
ENDBLK
  5
5AC
330
5A9
100
AcDbEntity
  8
0
100
AcDbBlockEnd
  0
BLOCK
  5
5B0
330
5AE
100
AcDbEntity
  8
0
100
AcDbBlockBegin
  2
BLOCK_115
 70
     0
 10
0.0
 20
0.0
 30
0.0
  3
BLOCK_115
  1

  0
POLYLINE
  5
5B2
330
5AE
100
AcDbEntity
  8
PUMP_-_ALTO
 62
   250
100
AcDb2dPolyline
 66
     1
 10
0.0
 20
0.0
 30
0.0
  0
VERTEX
  5
5B3
330
5B2
100
AcDbEntity
  8
PUMP_-_ALTO
 62
   250
100
AcDbVertex
100
AcDb2dVertex
 10
1037.139657655267
 20
-2078.396321559781
 30
0.0
  0
VERTEX
  5
5B4
330
5B2
100
AcDbEntity
  8
PUMP_-_ALTO
 62
   250
100
AcDbVertex
100
AcDb2dVertex
 10
1036.031042551662
 20
-2046.649738659587
 30
0.0
  0
SEQEND
  5
5B5
330
5B2
100
AcDbEntity
  8
PUMP_-_ALTO
 62
   250
  0
ENDBLK
  5
5B1
330
5AE
100
AcDbEntity
  8
0
100
AcDbBlockEnd
  0
BLOCK
  5
5B8
330
5B6
100
AcDbEntity
  8
0
100
AcDbBlockBegin
  2
BLOCK_116
 70
     0
 10
0.0
 20
0.0
 30
0.0
  3
BLOCK_116
  1

  0
SPLINE
  5
5BA
330
5B6
100
AcDbEntity
  8
PUMP_-_ALTO
 62
   250
100
AcDbSpline
210
0.0
220
0.0
230
1.0
 70
     8
 71
     3
 72
    14
 73
    10
 74
     0
 42
0.0000000001
 43
0.0000000001
 12
1.0
 22
0.0
 32
0.0
 13
1.0
 23
0.0
 33
0.0
 40
0.0
 40
0.0
 40
0.0
 40
0.0
 40
1.0
 40
1.0
 40
1.0
 40
2.0
 40
2.0
 40
2.0
 40
3.0
 40
3.0
 40
3.0
 40
3.0
 10
973.8556759080125
 20
-2070.446543341448
 30
0.0
 10
973.8556759080125
 20
-2070.446543341448
 30
0.0
 10
1015.094870680336
 20
-2041.564163982671
 30
0.0
 10
1015.094870680336
 20
-2041.564163982671
 30
0.0
 10
1015.094870680336
 20
-2041.564163982671
 30
0.0
 10
1017.974294910529
 20
-2040.175445921628
 30
0.0
 10
1019.430557661297
 20
-2041.631708672399
 30
0.0
 10
1019.430557661297
 20
-2041.631708672399
 30
0.0
 10
1022.480762428131
 20
-2044.681913439239
 30
0.0
 10
1022.480762428131
 20
-2044.681913439239
 30
0.0
  0
ENDBLK
  5
5B9
330
5B6
100
AcDbEntity
  8
0
100
AcDbBlockEnd
  0
BLOCK
  5
5BD
330
5BB
100
AcDbEntity
  8
0
100
AcDbBlockBegin
  2
BLOCK_117
 70
     0
 10
0.0
 20
0.0
 30
0.0
  3
BLOCK_117
  1

  0
POLYLINE
  5
5BF
330
5BB
100
AcDbEntity
  8
PUMP_-_ALTO
 62
   250
100
AcDb2dPolyline
 66
     1
 10
0.0
 20
0.0
 30
0.0
  0
VERTEX
  5
5C0
330
5BF
100
AcDbEntity
  8
PUMP_-_ALTO
 62
   250
100
AcDbVertex
100
AcDb2dVertex
 10
1033.993299883745
 20
-2044.681913439239
 30
0.0
  0
VERTEX
  5
5C1
330
5BF
100
AcDbEntity
  8
PUMP_-_ALTO
 62
   250
100
AcDbVertex
100
AcDb2dVertex
 10
1022.480762428131
 20
-2044.681913439239
 30
0.0
  0
SEQEND
  5
5C2
330
5BF
100
AcDbEntity
  8
PUMP_-_ALTO
 62
   250
  0
ENDBLK
  5
5BE
330
5BB
100
AcDbEntity
  8
0
100
AcDbBlockEnd
  0
BLOCK
  5
5C5
330
5C3
100
AcDbEntity
  8
0
100
AcDbBlockBegin
  2
BLOCK_118
 70
     0
 10
0.0
 20
0.0
 30
0.0
  3
BLOCK_118
  1

  0
POLYLINE
  5
5C7
330
5C3
100
AcDbEntity
  8
PUMP_-_ALTO
 62
   250
100
AcDb2dPolyline
 66
     1
 10
0.0
 20
0.0
 30
0.0
  0
VERTEX
  5
5C8
330
5C7
100
AcDbEntity
  8
PUMP_-_ALTO
 62
   250
100
AcDbVertex
100
AcDb2dVertex
 10
1050.619617274729
 20
-2046.649738659587
 30
0.0
  0
VERTEX
  5
5C9
330
5C7
100
AcDbEntity
  8
PUMP_-_ALTO
 62
   250
100
AcDbVertex
100
AcDb2dVertex
 10
1049.51100217112
 20
-2078.396321559781
 30
0.0
  0
SEQEND
  5
5CA
330
5C7
100
AcDbEntity
  8
PUMP_-_ALTO
 62
   250
  0
ENDBLK
  5
5C6
330
5C3
100
AcDbEntity
  8
0
100
AcDbBlockEnd
  0
BLOCK
  5
5CD
330
5CB
100
AcDbEntity
  8
0
100
AcDbBlockBegin
  2
BLOCK_119
 70
     0
 10
0.0
 20
0.0
 30
0.0
  3
BLOCK_119
  1

  0
POLYLINE
  5
5CF
330
5CB
100
AcDbEntity
  8
PUMP_-_ALTO
 62
   250
100
AcDb2dPolyline
 66
     1
 10
0.0
 20
0.0
 30
0.0
  0
VERTEX
  5
5D0
330
5CF
100
AcDbEntity
  8
PUMP_-_ALTO
 62
   250
100
AcDbVertex
100
AcDb2dVertex
 10
1037.139657655267
 20
-1939.603038636919
 30
0.0
  0
VERTEX
  5
5D1
330
5CF
100
AcDbEntity
  8
PUMP_-_ALTO
 62
   250
100
AcDbVertex
100
AcDb2dVertex
 10
1036.031042551662
 20
-1971.349621537114
 30
0.0
  0
SEQEND
  5
5D2
330
5CF
100
AcDbEntity
  8
PUMP_-_ALTO
 62
   250
  0
ENDBLK
  5
5CE
330
5CB
100
AcDbEntity
  8
0
100
AcDbBlockEnd
  0
BLOCK
  5
5D5
330
5D3
100
AcDbEntity
  8
0
100
AcDbBlockBegin
  2
BLOCK_120
 70
     0
 10
0.0
 20
0.0
 30
0.0
  3
BLOCK_120
  1

  0
POLYLINE
  5
5D7
330
5D3
100
AcDbEntity
  8
PUMP_-_ALTO
 62
   250
100
AcDb2dPolyline
 66
     1
 10
0.0
 20
0.0
 30
0.0
  0
VERTEX
  5
5D8
330
5D7
100
AcDbEntity
  8
PUMP_-_ALTO
 62
   250
100
AcDbVertex
100
AcDb2dVertex
 10
1050.619617274729
 20
-1971.349621537114
 30
0.0
  0
VERTEX
  5
5D9
330
5D7
100
AcDbEntity
  8
PUMP_-_ALTO
 62
   250
100
AcDbVertex
100
AcDb2dVertex
 10
1049.51100217112
 20
-1939.603038636919
 30
0.0
  0
SEQEND
  5
5DA
330
5D7
100
AcDbEntity
  8
PUMP_-_ALTO
 62
   250
  0
ENDBLK
  5
5D6
330
5D3
100
AcDbEntity
  8
0
100
AcDbBlockEnd
  0
BLOCK
  5
5DD
330
5DB
100
AcDbEntity
  8
0
100
AcDbBlockBegin
  2
BLOCK_121
 70
     0
 10
0.0
 20
0.0
 30
0.0
  3
BLOCK_121
  1

  0
POLYLINE
  5
5DF
330
5DB
100
AcDbEntity
  8
PUMP_-_ALTO
 62
   250
100
AcDb2dPolyline
 66
     1
 10
0.0
 20
0.0
 30
0.0
  0
VERTEX
  5
5E0
330
5DF
100
AcDbEntity
  8
PUMP_-_ALTO
 62
   250
100
AcDbVertex
100
AcDb2dVertex
 10
1047.47325950321
 20
-1973.248985453146
 30
0.0
  0
VERTEX
  5
5E1
330
5DF
100
AcDbEntity
  8
PUMP_-_ALTO
 62
   250
100
AcDbVertex
100
AcDb2dVertex
 10
1039.177400323178
 20
-1973.248985453146
 30
0.0
  0
SEQEND
  5
5E2
330
5DF
100
AcDbEntity
  8
PUMP_-_ALTO
 62
   250
  0
ENDBLK
  5
5DE
330
5DB
100
AcDbEntity
  8
0
100
AcDbBlockEnd
  0
BLOCK
  5
5E5
330
5E3
100
AcDbEntity
  8
0
100
AcDbBlockBegin
  2
BLOCK_122
 70
     0
 10
0.0
 20
0.0
 30
0.0
  3
BLOCK_122
  1

  0
SPLINE
  5
5E7
330
5E3
100
AcDbEntity
  8
PUMP_-_ALTO
 62
   250
100
AcDbSpline
210
0.0
220
0.0
230
1.0
 70
     8
 71
     3
 72
     8
 73
     4
 74
     0
 42
0.0000000001
 43
0.0000000001
 12
1.0
 22
0.0
 32
0.0
 13
1.0
 23
0.0
 33
0.0
 40
0.0
 40
0.0
 40
0.0
 40
0.0
 40
1.0
 40
1.0
 40
1.0
 40
1.0
 10
1033.993299883745
 20
-1973.317446757461
 30
0.0
 10
1035.091704307827
 20
-1973.317446757461
 30
0.0
 10
1035.992708790083
 20
-1972.447356842902
 30
0.0
 10
1036.031042551662
 20
-1971.349621537114
 30
0.0
  0
ENDBLK
  5
5E6
330
5E3
100
AcDbEntity
  8
0
100
AcDbBlockEnd
  0
BLOCK
  5
5EA
330
5E8
100
AcDbEntity
  8
0
100
AcDbBlockBegin
  2
BLOCK_123
 70
     0
 10
0.0
 20
0.0
 30
0.0
  3
BLOCK_123
  1

  0
SPLINE
  5
5EC
330
5E8
100
AcDbEntity
  8
PUMP_-_ALTO
 62
   250
100
AcDbSpline
210
0.0
220
0.0
230
1.0
 70
     8
 71
     3
 72
    14
 73
    10
 74
     0
 42
0.0000000001
 43
0.0000000001
 12
1.0
 22
0.0
 32
0.0
 13
1.0
 23
0.0
 33
0.0
 40
0.0
 40
0.0
 40
0.0
 40
0.0
 40
1.0
 40
1.0
 40
1.0
 40
2.0
 40
2.0
 40
2.0
 40
3.0
 40
3.0
 40
3.0
 40
3.0
 10
1022.480762428131
 20
-1973.317446757461
 30
0.0
 10
1022.480762428131
 20
-1973.317446757461
 30
0.0
 10
1018.431689558689
 20
-1977.36651962691
 30
0.0
 10
1018.431689558689
 20
-1977.36651962691
 30
0.0
 10
1011.832821348289
 20
-1977.36651962691
 30
0.0
 10
1002.177761659481
 20
-1968.481401971329
 30
0.0
 10
1002.177761659481
 20
-1968.481401971329
 30
0.0
 10
1002.177761659481
 20
-1968.481401971329
 30
0.0
 10
961.7703467500451
 20
-1931.163307336638
 30
0.0
 10
961.7703467500451
 20
-1931.163307336638
 30
0.0
  0
ENDBLK
  5
5EB
330
5E8
100
AcDbEntity
  8
0
100
AcDbBlockEnd
  0
BLOCK
  5
5EF
330
5ED
100
AcDbEntity
  8
0
100
AcDbBlockBegin
  2
BLOCK_124
 70
     0
 10
0.0
 20
0.0
 30
0.0
  3
BLOCK_124
  1

  0
POLYLINE
  5
5F1
330
5ED
100
AcDbEntity
  8
PUMP_-_ALTO
 62
   250
100
AcDb2dPolyline
 66
     1
 10
0.0
 20
0.0
 30
0.0
  0
VERTEX
  5
5F2
330
5F1
100
AcDbEntity
  8
PUMP_-_ALTO
 62
   250
100
AcDbVertex
100
AcDb2dVertex
 10
1024.021100542487
 20
-1973.317446757461
 30
0.0
  0
VERTEX
  5
5F3
330
5F1
100
AcDbEntity
  8
PUMP_-_ALTO
 62
   250
100
AcDbVertex
100
AcDb2dVertex
 10
1024.021100542487
 20
-2008.99968009835
 30
0.0
  0
SEQEND
  5
5F4
330
5F1
100
AcDbEntity
  8
PUMP_-_ALTO
 62
   250
  0
ENDBLK
  5
5F0
330
5ED
100
AcDbEntity
  8
0
100
AcDbBlockEnd
  0
BLOCK
  5
5F7
330
5F5
100
AcDbEntity
  8
0
100
AcDbBlockBegin
  2
BLOCK_125
 70
     0
 10
0.0
 20
0.0
 30
0.0
  3
BLOCK_125
  1

  0
POLYLINE
  5
5F9
330
5F5
100
AcDbEntity
  8
PUMP_-_ALTO
 62
   250
100
AcDb2dPolyline
 66
     1
 10
0.0
 20
0.0
 30
0.0
  0
VERTEX
  5
5FA
330
5F9
100
AcDbEntity
  8
PUMP_-_ALTO
 62
   250
100
AcDbVertex
100
AcDb2dVertex
 10
1022.480762428131
 20
-1973.317446757461
 30
0.0
  0
VERTEX
  5
5FB
330
5F9
100
AcDbEntity
  8
PUMP_-_ALTO
 62
   250
100
AcDbVertex
100
AcDb2dVertex
 10
1033.993299883745
 20
-1973.317446757461
 30
0.0
  0
SEQEND
  5
5FC
330
5F9
100
AcDbEntity
  8
PUMP_-_ALTO
 62
   250
  0
ENDBLK
  5
5F8
330
5F5
100
AcDbEntity
  8
0
100
AcDbBlockEnd
  0
BLOCK
  5
5FF
330
5FD
100
AcDbEntity
  8
0
100
AcDbBlockBegin
  2
BLOCK_126
 70
     0
 10
0.0
 20
0.0
 30
0.0
  3
BLOCK_126
  1

  0
POLYLINE
  5
601
330
5FD
100
AcDbEntity
  8
PUMP_-_ALTO
 62
   250
100
AcDb2dPolyline
 66
     1
 10
0.0
 20
0.0
 30
0.0
  0
VERTEX
  5
602
330
601
100
AcDbEntity
  8
PUMP_-_ALTO
 62
   250
100
AcDbVertex
100
AcDb2dVertex
 10
1047.47325950321
 20
-1937.635213416572
 30
0.0
  0
VERTEX
  5
603
330
601
100
AcDbEntity
  8
PUMP_-_ALTO
 62
   250
100
AcDbVertex
100
AcDb2dVertex
 10
1039.177400323178
 20
-1937.635213416572
 30
0.0
  0
SEQEND
  5
604
330
601
100
AcDbEntity
  8
PUMP_-_ALTO
 62
   250
  0
ENDBLK
  5
600
330
5FD
100
AcDbEntity
  8
0
100
AcDbBlockEnd
  0
BLOCK
  5
607
330
605
100
AcDbEntity
  8
0
100
AcDbBlockBegin
  2
BLOCK_127
 70
     0
 10
0.0
 20
0.0
 30
0.0
  3
BLOCK_127
  1

  0
POLYLINE
  5
609
330
605
100
AcDbEntity
  8
PUMP_-_ALTO
 62
   250
100
AcDb2dPolyline
 66
     1
 10
0.0
 20
0.0
 30
0.0
  0
VERTEX
  5
60A
330
609
100
AcDbEntity
  8
PUMP_-_ALTO
 62
   250
100
AcDbVertex
100
AcDb2dVertex
 10
1047.47325950321
 20
-1954.83605546603
 30
0.0
  0
VERTEX
  5
60B
330
609
100
AcDbEntity
  8
PUMP_-_ALTO
 62
   250
100
AcDbVertex
100
AcDb2dVertex
 10
1039.177400323178
 20
-1954.83605546603
 30
0.0
  0
SEQEND
  5
60C
330
609
100
AcDbEntity
  8
PUMP_-_ALTO
 62
   250
  0
ENDBLK
  5
608
330
605
100
AcDbEntity
  8
0
100
AcDbBlockEnd
  0
BLOCK
  5
60F
330
60D
100
AcDbEntity
  8
0
100
AcDbBlockBegin
  2
BLOCK_128
 70
     0
 10
0.0
 20
0.0
 30
0.0
  3
BLOCK_128
  1

  0
SPLINE
  5
611
330
60D
100
AcDbEntity
  8
PUMP_-_ALTO
 62
   250
100
AcDbSpline
210
0.0
220
0.0
230
1.0
 70
     8
 71
     3
 72
     8
 73
     4
 74
     0
 42
0.0000000001
 43
0.0000000001
 12
1.0
 22
0.0
 32
0.0
 13
1.0
 23
0.0
 33
0.0
 40
0.0
 40
0.0
 40
0.0
 40
0.0
 40
1.0
 40
1.0
 40
1.0
 40
1.0
 10
1039.177400323184
 20
-1937.635213416572
 30
0.0
 10
1038.078995899089
 20
-1937.635213416572
 30
0.0
 10
1037.177991416843
 20
-1938.505303331131
 30
0.0
 10
1037.139657655267
 20
-1939.603038636919
 30
0.0
  0
ENDBLK
  5
610
330
60D
100
AcDbEntity
  8
0
100
AcDbBlockEnd
  0
BLOCK
  5
614
330
612
100
AcDbEntity
  8
0
100
AcDbBlockBegin
  2
BLOCK_129
 70
     0
 10
0.0
 20
0.0
 30
0.0
  3
BLOCK_129
  1

  0
SPLINE
  5
616
330
612
100
AcDbEntity
  8
PUMP_-_ALTO
 62
   250
100
AcDbSpline
210
0.0
220
0.0
230
1.0
 70
     8
 71
     3
 72
     8
 73
     4
 74
     0
 42
0.0000000001
 43
0.0000000001
 12
1.0
 22
0.0
 32
0.0
 13
1.0
 23
0.0
 33
0.0
 40
0.0
 40
0.0
 40
0.0
 40
0.0
 40
1.0
 40
1.0
 40
1.0
 40
1.0
 10
1049.51100217112
 20
-1939.603038636919
 30
0.0
 10
1049.472668409545
 20
-1938.505303331131
 30
0.0
 10
1048.571663927298
 20
-1937.635213416572
 30
0.0
 10
1047.47325950321
 20
-1937.635213416572
 30
0.0
  0
ENDBLK
  5
615
330
612
100
AcDbEntity
  8
0
100
AcDbBlockEnd
  0
BLOCK
  5
61A
330
618
100
AcDbEntity
  8
0
100
AcDbBlockBegin
  2
BLOCK_130
 70
     0
 10
0.0
 20
0.0
 30
0.0
  3
BLOCK_130
  1

  0
SPLINE
  5
61C
330
618
100
AcDbEntity
  8
PUMP_-_ALTO
 62
   250
100
AcDbSpline
210
0.0
220
0.0
230
1.0
 70
     8
 71
     3
 72
    11
 73
     7
 74
     0
 42
0.0000000001
 43
0.0000000001
 12
1.0
 22
0.0
 32
0.0
 13
1.0
 23
0.0
 33
0.0
 40
0.0
 40
0.0
 40
0.0
 40
0.0
 40
1.0
 40
1.0
 40
1.0
 40
2.0
 40
2.0
 40
2.0
 40
2.0
 10
928.4404357797891
 20
-2047.000253177176
 30
0.0
 10
931.7006301872825
 20
-2043.927581384311
 30
0.0
 10
931.8526473022916
 20
-2038.793778982462
 30
0.0
 10
928.7799755094265
 20
-2035.533584574956
 30
0.0
 10
927.2472709605408
 20
-2033.90734033688
 30
0.0
 10
925.1115645117058
 20
-2032.985435996687
 30
0.0
 10
922.8768713434946
 20
-2032.985435996687
 30
0.0
  0
ENDBLK
  5
61B
330
618
100
AcDbEntity
  8
0
100
AcDbBlockEnd
  0
BLOCK
  5
61F
330
61D
100
AcDbEntity
  8
0
100
AcDbBlockBegin
  2
BLOCK_131
 70
     0
 10
0.0
 20
0.0
 30
0.0
  3
BLOCK_131
  1

  0
POLYLINE
  5
621
330
61D
100
AcDbEntity
  8
PUMP_-_ALTO
 62
   250
100
AcDb2dPolyline
 66
     1
 10
0.0
 20
0.0
 30
0.0
  0
VERTEX
  5
622
330
621
100
AcDbEntity
  8
PUMP_-_ALTO
 62
   250
100
AcDbVertex
100
AcDb2dVertex
 10
966.5799971238016
 20
-2013.746834501686
 30
0.0
  0
VERTEX
  5
623
330
621
100
AcDbEntity
  8
PUMP_-_ALTO
 62
   250
100
AcDbVertex
100
AcDb2dVertex
 10
966.5799971238016
 20
-2004.127533754186
 30
0.0
  0
SEQEND
  5
624
330
621
100
AcDbEntity
  8
PUMP_-_ALTO
 62
   250
  0
ENDBLK
  5
620
330
61D
100
AcDbEntity
  8
0
100
AcDbBlockEnd
  0
BLOCK
  5
627
330
625
100
AcDbEntity
  8
0
100
AcDbBlockBegin
  2
BLOCK_132
 70
     0
 10
0.0
 20
0.0
 30
0.0
  3
BLOCK_132
  1

  0
SPLINE
  5
629
330
625
100
AcDbEntity
  8
PUMP_-_ALTO
 62
   250
100
AcDbSpline
210
0.0
220
0.0
230
1.0
 70
     8
 71
     3
 72
     8
 73
     4
 74
     0
 42
0.0000000001
 43
0.0000000001
 12
1.0
 22
0.0
 32
0.0
 13
1.0
 23
0.0
 33
0.0
 40
0.0
 40
0.0
 40
0.0
 40
0.0
 40
1.0
 40
1.0
 40
1.0
 40
1.0
 10
961.7703467500451
 20
-2018.556484875436
 30
0.0
 10
964.4266433034941
 20
-2018.556484875436
 30
0.0
 10
966.5799971238016
 20
-2016.403131055126
 30
0.0
 10
966.5799971238016
 20
-2013.746834501686
 30
0.0
  0
ENDBLK
  5
628
330
625
100
AcDbEntity
  8
0
100
AcDbBlockEnd
  0
BLOCK
  5
62C
330
62A
100
AcDbEntity
  8
0
100
AcDbBlockBegin
  2
BLOCK_133
 70
     0
 10
0.0
 20
0.0
 30
0.0
  3
BLOCK_133
  1

  0
SPLINE
  5
62E
330
62A
100
AcDbEntity
  8
PUMP_-_ALTO
 62
   250
100
AcDbSpline
210
0.0
220
0.0
230
1.0
 70
    11
 71
     3
 72
    20
 73
    16
 74
     0
 42
0.0000000001
 43
0.0000000001
 12
1.0
 22
0.0
 32
0.0
 13
1.0
 23
0.0
 33
0.0
 40
0.0
 40
0.0
 40
0.0
 40
0.0
 40
1.0
 40
1.0
 40
1.0
 40
2.0
 40
2.0
 40
2.0
 40
3.0
 40
3.0
 40
3.0
 40
4.0
 40
4.0
 40
4.0
 40
5.0
 40
5.0
 40
5.0
 40
5.0
 10
892.5113813680632
 20
-2045.971492005808
 30
0.0
 10
892.5113813680632
 20
-2045.440232695115
 30
0.0
 10
892.9420521321164
 20
-2045.009561931056
 30
0.0
 10
893.4733114428158
 20
-2045.009561931056
 30
0.0
 10
894.0045707535024
 20
-2045.009561931056
 30
0.0
 10
894.4352415175556
 20
-2045.440232695115
 30
0.0
 10
894.4352415175556
 20
-2045.971492005808
 30
0.0
 10
894.4352415175556
 20
-2046.502751316495
 30
0.0
 10
894.0045707535024
 20
-2046.933422080555
 30
0.0
 10
893.4733114428158
 20
-2046.933422080555
 30
0.0
 10
892.9420521321164
 20
-2046.933422080555
 30
0.0
 10
892.5113813680632
 20
-2046.502751316495
 30
0.0
 10
892.5113813680632
 20
-2045.971492005808
 30
0.0
 10
892.5113813680632
 20
-2045.971492005808
 30
0.0
 10
892.5113813680632
 20
-2045.971492005808
 30
0.0
 10
892.5113813680632
 20
-2045.971492005808
 30
0.0
  0
ENDBLK
  5
62D
330
62A
100
AcDbEntity
  8
0
100
AcDbBlockEnd
  0
BLOCK
  5
631
330
62F
100
AcDbEntity
  8
0
100
AcDbBlockBegin
  2
BLOCK_134
 70
     0
 10
0.0
 20
0.0
 30
0.0
  3
BLOCK_134
  1

  0
SPLINE
  5
633
330
62F
100
AcDbEntity
  8
PUMP_-_ALTO
 62
   250
100
AcDbSpline
210
0.0
220
0.0
230
1.0
 70
    11
 71
     3
 72
    20
 73
    16
 74
     0
 42
0.0000000001
 43
0.0000000001
 12
1.0
 22
0.0
 32
0.0
 13
1.0
 23
0.0
 33
0.0
 40
0.0
 40
0.0
 40
0.0
 40
0.0
 40
1.0
 40
1.0
 40
1.0
 40
2.0
 40
2.0
 40
2.0
 40
3.0
 40
3.0
 40
3.0
 40
4.0
 40
4.0
 40
4.0
 40
5.0
 40
5.0
 40
5.0
 40
5.0
 10
822.7714509486955
 20
-2008.937184127936
 30
0.0
 10
822.7714509486955
 20
-2007.077776540526
 30
0.0
 10
824.2787986229135
 20
-2005.570428866315
 30
0.0
 10
826.1382062103168
 20
-2005.570428866315
 30
0.0
 10
827.9976137977359
 20
-2005.570428866315
 30
0.0
 10
829.5049614719476
 20
-2007.077776540526
 30
0.0
 10
829.5049614719476
 20
-2008.937184127936
 30
0.0
 10
829.5049614719476
 20
-2010.796591715346
 30
0.0
 10
827.9976137977359
 20
-2012.303939389557
 30
0.0
 10
826.1382062103168
 20
-2012.303939389557
 30
0.0
 10
824.2787986229135
 20
-2012.303939389557
 30
0.0
 10
822.7714509486955
 20
-2010.796591715346
 30
0.0
 10
822.7714509486955
 20
-2008.937184127936
 30
0.0
 10
822.7714509486955
 20
-2008.937184127936
 30
0.0
 10
822.7714509486955
 20
-2008.937184127936
 30
0.0
 10
822.7714509486955
 20
-2008.937184127936
 30
0.0
  0
ENDBLK
  5
632
330
62F
100
AcDbEntity
  8
0
100
AcDbBlockEnd
  0
BLOCK
  5
636
330
634
100
AcDbEntity
  8
0
100
AcDbBlockBegin
  2
BLOCK_135
 70
     0
 10
0.0
 20
0.0
 30
0.0
  3
BLOCK_135
  1

  0
SPLINE
  5
638
330
634
100
AcDbEntity
  8
PUMP_-_ALTO
 62
   250
100
AcDbSpline
210
0.0
220
0.0
230
1.0
 70
     8
 71
     3
 72
     8
 73
     4
 74
     0
 42
0.0000000001
 43
0.0000000001
 12
1.0
 22
0.0
 32
0.0
 13
1.0
 23
0.0
 33
0.0
 40
0.0
 40
0.0
 40
0.0
 40
0.0
 40
1.0
 40
1.0
 40
1.0
 40
1.0
 10
820.3666257618236
 20
-2013.746834501686
 30
0.0
 10
820.3666257618236
 20
-2016.403131055126
 30
0.0
 10
822.5199795821279
 20
-2018.556484875436
 30
0.0
 10
825.1762761355641
 20
-2018.556484875436
 30
0.0
  0
ENDBLK
  5
637
330
634
100
AcDbEntity
  8
0
100
AcDbBlockEnd
  0
BLOCK
  5
63B
330
639
100
AcDbEntity
  8
0
100
AcDbBlockBegin
  2
BLOCK_136
 70
     0
 10
0.0
 20
0.0
 30
0.0
  3
BLOCK_136
  1

  0
POLYLINE
  5
63D
330
639
100
AcDbEntity
  8
PUMP_-_ALTO
 62
   250
100
AcDb2dPolyline
 66
     1
 10
0.0
 20
0.0
 30
0.0
  0
VERTEX
  5
63E
330
63D
100
AcDbEntity
  8
PUMP_-_ALTO
 62
   250
100
AcDbVertex
100
AcDb2dVertex
 10
820.3666257618236
 20
-2004.127533754186
 30
0.0
  0
VERTEX
  5
63F
330
63D
100
AcDbEntity
  8
PUMP_-_ALTO
 62
   250
100
AcDbVertex
100
AcDb2dVertex
 10
820.3666257618236
 20
-2013.746834501686
 30
0.0
  0
SEQEND
  5
640
330
63D
100
AcDbEntity
  8
PUMP_-_ALTO
 62
   250
  0
ENDBLK
  5
63C
330
639
100
AcDbEntity
  8
0
100
AcDbBlockEnd
  0
BLOCK
  5
643
330
641
100
AcDbEntity
  8
0
100
AcDbBlockBegin
  2
BLOCK_137
 70
     0
 10
0.0
 20
0.0
 30
0.0
  3
BLOCK_137
  1

  0
SPLINE
  5
645
330
641
100
AcDbEntity
  8
PUMP_-_ALTO
 62
   250
100
AcDbSpline
210
0.0
220
0.0
230
1.0
 70
    11
 71
     3
 72
    20
 73
    16
 74
     0
 42
0.0000000001
 43
0.0000000001
 12
1.0
 22
0.0
 32
0.0
 13
1.0
 23
0.0
 33
0.0
 40
0.0
 40
0.0
 40
0.0
 40
0.0
 40
1.0
 40
1.0
 40
1.0
 40
2.0
 40
2.0
 40
2.0
 40
3.0
 40
3.0
 40
3.0
 40
4.0
 40
4.0
 40
4.0
 40
5.0
 40
5.0
 40
5.0
 40
5.0
 10
860.3829168714124
 20
-2043.085701781557
 30
0.0
 10
860.3829168714124
 20
-2041.279420125221
 30
0.0
 10
861.8471974692233
 20
-2039.815139527407
 30
0.0
 10
863.6534791255622
 20
-2039.815139527407
 30
0.0
 10
865.4597607819109
 20
-2039.815139527407
 30
0.0
 10
866.9240413797218
 20
-2041.279420125221
 30
0.0
 10
866.9240413797218
 20
-2043.085701781557
 30
0.0
 10
866.9240413797218
 20
-2044.891983437899
 30
0.0
 10
865.4597607819109
 20
-2046.356264035701
 30
0.0
 10
863.6534791255622
 20
-2046.356264035701
 30
0.0
 10
861.8471974692233
 20
-2046.356264035701
 30
0.0
 10
860.3829168714124
 20
-2044.891983437899
 30
0.0
 10
860.3829168714124
 20
-2043.085701781557
 30
0.0
 10
860.3829168714124
 20
-2043.085701781557
 30
0.0
 10
860.3829168714124
 20
-2043.085701781557
 30
0.0
 10
860.3829168714124
 20
-2043.085701781557
 30
0.0
  0
ENDBLK
  5
644
330
641
100
AcDbEntity
  8
0
100
AcDbBlockEnd
  0
BLOCK
  5
648
330
646
100
AcDbEntity
  8
0
100
AcDbBlockBegin
  2
BLOCK_138
 70
     0
 10
0.0
 20
0.0
 30
0.0
  3
BLOCK_138
  1

  0
SPLINE
  5
64A
330
646
100
AcDbEntity
  8
PUMP_-_ALTO
 62
   250
100
AcDbSpline
210
0.0
220
0.0
230
1.0
 70
     8
 71
     3
 72
    11
 73
     7
 74
     0
 42
0.0000000001
 43
0.0000000001
 12
1.0
 22
0.0
 32
0.0
 13
1.0
 23
0.0
 33
0.0
 40
0.0
 40
0.0
 40
0.0
 40
0.0
 40
1.0
 40
1.0
 40
1.0
 40
2.0
 40
2.0
 40
2.0
 40
2.0
 10
864.0697515421306
 20
-2032.985435996687
 30
0.0
 10
859.5897761491804
 20
-2032.985435996687
 30
0.0
 10
855.9580385275607
 20
-2036.617173618291
 30
0.0
 10
855.9580385275607
 20
-2041.097149011244
 30
0.0
 10
855.9580385275607
 20
-2043.331842179455
 30
0.0
 10
856.87994286776
 20
-2045.467548628284
 30
0.0
 10
858.5061871058457
 20
-2047.000253177176
 30
0.0
  0
ENDBLK
  5
649
330
646
100
AcDbEntity
  8
0
100
AcDbBlockEnd
  0
BLOCK
  5
64D
330
64B
100
AcDbEntity
  8
0
100
AcDbBlockBegin
  2
BLOCK_139
 70
     0
 10
0.0
 20
0.0
 30
0.0
  3
BLOCK_139
  1

  0
SPLINE
  5
64F
330
64B
100
AcDbEntity
  8
PUMP_-_ALTO
 62
   250
100
AcDbSpline
210
0.0
220
0.0
230
1.0
 70
     8
 71
     3
 72
    11
 73
     7
 74
     0
 42
0.0000000001
 43
0.0000000001
 12
1.0
 22
0.0
 32
0.0
 13
1.0
 23
0.0
 33
0.0
 40
0.0
 40
0.0
 40
0.0
 40
0.0
 40
1.0
 40
1.0
 40
1.0
 40
2.0
 40
2.0
 40
2.0
 40
2.0
 10
947.6325212445695
 20
-1999.317883380429
 30
0.0
 10
942.3199281376842
 20
-1969.406577744035
 30
0.0
 10
913.7653163317005
 20
-1949.465381219297
 30
0.0
 10
883.8540106953154
 20
-1954.777974326182
 30
0.0
 10
861.1349995675488
 20
-1958.813132917378
 30
0.0
 10
843.3492602322513
 20
-1976.598872252672
 30
0.0
 10
839.3141016410493
 20
-1999.317883380429
 30
0.0
  0
ENDBLK
  5
64E
330
64B
100
AcDbEntity
  8
0
100
AcDbBlockEnd
  0
BLOCK
  5
652
330
650
100
AcDbEntity
  8
0
100
AcDbBlockBegin
  2
BLOCK_140
 70
     0
 10
0.0
 20
0.0
 30
0.0
  3
BLOCK_140
  1

  0
POLYLINE
  5
654
330
650
100
AcDbEntity
  8
PUMP_-_ALTO
 62
   250
100
AcDb2dPolyline
 66
     1
 10
0.0
 20
0.0
 30
0.0
  0
VERTEX
  5
655
330
654
100
AcDbEntity
  8
PUMP_-_ALTO
 62
   250
100
AcDbVertex
100
AcDb2dVertex
 10
961.7703467500451
 20
-2018.556484875436
 30
0.0
  0
VERTEX
  5
656
330
654
100
AcDbEntity
  8
PUMP_-_ALTO
 62
   250
100
AcDbVertex
100
AcDb2dVertex
 10
825.1762761355641
 20
-2018.556484875436
 30
0.0
  0
SEQEND
  5
657
330
654
100
AcDbEntity
  8
PUMP_-_ALTO
 62
   250
  0
ENDBLK
  5
653
330
650
100
AcDbEntity
  8
0
100
AcDbBlockEnd
  0
BLOCK
  5
65A
330
658
100
AcDbEntity
  8
0
100
AcDbBlockBegin
  2
BLOCK_141
 70
     0
 10
0.0
 20
0.0
 30
0.0
  3
BLOCK_141
  1

  0
SPLINE
  5
65C
330
658
100
AcDbEntity
  8
PUMP_-_ALTO
 62
   250
100
AcDbSpline
210
0.0
220
0.0
230
1.0
 70
    11
 71
     3
 72
    20
 73
    16
 74
     0
 42
0.0000000001
 43
0.0000000001
 12
1.0
 22
0.0
 32
0.0
 13
1.0
 23
0.0
 33
0.0
 40
0.0
 40
0.0
 40
0.0
 40
0.0
 40
1.0
 40
1.0
 40
1.0
 40
2.0
 40
2.0
 40
2.0
 40
3.0
 40
3.0
 40
3.0
 40
4.0
 40
4.0
 40
4.0
 40
5.0
 40
5.0
 40
5.0
 40
5.0
 10
875.4371225412527
 20
-2045.490526968432
 30
0.0
 10
875.4371225412527
 20
-2042.435785931978
 30
0.0
 10
877.9134794346032
 20
-2039.959429038621
 30
0.0
 10
880.9682204710641
 20
-2039.959429038621
 30
0.0
 10
884.0229615075122
 20
-2039.959429038621
 30
0.0
 10
886.4993184008755
 20
-2042.435785931978
 30
0.0
 10
886.4993184008755
 20
-2045.490526968432
 30
0.0
 10
886.4993184008755
 20
-2048.545268004887
 30
0.0
 10
884.0229615075122
 20
-2051.021624898244
 30
0.0
 10
880.9682204710641
 20
-2051.021624898244
 30
0.0
 10
877.9134794346032
 20
-2051.021624898244
 30
0.0
 10
875.4371225412527
 20
-2048.545268004887
 30
0.0
 10
875.4371225412527
 20
-2045.490526968432
 30
0.0
 10
875.4371225412527
 20
-2045.490526968432
 30
0.0
 10
875.4371225412527
 20
-2045.490526968432
 30
0.0
 10
875.4371225412527
 20
-2045.490526968432
 30
0.0
  0
ENDBLK
  5
65B
330
658
100
AcDbEntity
  8
0
100
AcDbBlockEnd
  0
BLOCK
  5
65F
330
65D
100
AcDbEntity
  8
0
100
AcDbBlockBegin
  2
BLOCK_142
 70
     0
 10
0.0
 20
0.0
 30
0.0
  3
BLOCK_142
  1

  0
POLYLINE
  5
661
330
65D
100
AcDbEntity
  8
PUMP_-_ALTO
 62
   250
100
AcDb2dPolyline
 66
     1
 10
0.0
 20
0.0
 30
0.0
  0
VERTEX
  5
662
330
661
100
AcDbEntity
  8
PUMP_-_ALTO
 62
   250
100
AcDbVertex
100
AcDb2dVertex
 10
961.7703467500451
 20
-1999.317883380436
 30
0.0
  0
VERTEX
  5
663
330
661
100
AcDbEntity
  8
PUMP_-_ALTO
 62
   250
100
AcDbVertex
100
AcDb2dVertex
 10
825.1762761355641
 20
-1999.317883380436
 30
0.0
  0
SEQEND
  5
664
330
661
100
AcDbEntity
  8
PUMP_-_ALTO
 62
   250
  0
ENDBLK
  5
660
330
65D
100
AcDbEntity
  8
0
100
AcDbBlockEnd
  0
BLOCK
  5
667
330
665
100
AcDbEntity
  8
0
100
AcDbBlockBegin
  2
BLOCK_143
 70
     0
 10
0.0
 20
0.0
 30
0.0
  3
BLOCK_143
  1

  0
SPLINE
  5
669
330
665
100
AcDbEntity
  8
PUMP_-_ALTO
 62
   250
100
AcDbSpline
210
0.0
220
0.0
230
1.0
 70
    11
 71
     3
 72
    20
 73
    16
 74
     0
 42
0.0000000001
 43
0.0000000001
 12
1.0
 22
0.0
 32
0.0
 13
1.0
 23
0.0
 33
0.0
 40
0.0
 40
0.0
 40
0.0
 40
0.0
 40
1.0
 40
1.0
 40
1.0
 40
2.0
 40
2.0
 40
2.0
 40
3.0
 40
3.0
 40
3.0
 40
4.0
 40
4.0
 40
4.0
 40
5.0
 40
5.0
 40
5.0
 40
5.0
 10
870.8679546861874
 20
-2045.490526968432
 30
0.0
 10
870.8679546861874
 20
-2039.91230420621
 30
0.0
 10
875.3899977088419
 20
-2035.390261183556
 30
0.0
 10
880.9682204710641
 20
-2035.390261183556
 30
0.0
 10
886.5464432332927
 20
-2035.390261183556
 30
0.0
 10
891.0684862559343
 20
-2039.91230420621
 30
0.0
 10
891.0684862559343
 20
-2045.490526968432
 30
0.0
 10
891.0684862559343
 20
-2051.068749730654
 30
0.0
 10
886.5464432332927
 20
-2055.590792753309
 30
0.0
 10
880.9682204710641
 20
-2055.590792753309
 30
0.0
 10
875.3899977088419
 20
-2055.590792753309
 30
0.0
 10
870.8679546861874
 20
-2051.068749730654
 30
0.0
 10
870.8679546861874
 20
-2045.490526968432
 30
0.0
 10
870.8679546861874
 20
-2045.490526968432
 30
0.0
 10
870.8679546861874
 20
-2045.490526968432
 30
0.0
 10
870.8679546861874
 20
-2045.490526968432
 30
0.0
  0
ENDBLK
  5
668
330
665
100
AcDbEntity
  8
0
100
AcDbBlockEnd
  0
BLOCK
  5
66C
330
66A
100
AcDbEntity
  8
0
100
AcDbBlockBegin
  2
BLOCK_144
 70
     0
 10
0.0
 20
0.0
 30
0.0
  3
BLOCK_144
  1

  0
SPLINE
  5
66E
330
66A
100
AcDbEntity
  8
PUMP_-_ALTO
 62
   250
100
AcDbSpline
210
0.0
220
0.0
230
1.0
 70
    11
 71
     3
 72
    20
 73
    16
 74
     0
 42
0.0000000001
 43
0.0000000001
 12
1.0
 22
0.0
 32
0.0
 13
1.0
 23
0.0
 33
0.0
 40
0.0
 40
0.0
 40
0.0
 40
0.0
 40
1.0
 40
1.0
 40
1.0
 40
2.0
 40
2.0
 40
2.0
 40
3.0
 40
3.0
 40
3.0
 40
4.0
 40
4.0
 40
4.0
 40
5.0
 40
5.0
 40
5.0
 40
5.0
 10
817.0486842685837
 20
-2008.937184127936
 30
0.0
 10
817.0486842685837
 20
-1966.729028028109
 30
0.0
 10
851.2651553429829
 20
-1932.512556953717
 30
0.0
 10
893.4733114428158
 20
-1932.512556953717
 30
0.0
 10
935.6814675426359
 20
-1932.512556953717
 30
0.0
 10
969.897938617032
 20
-1966.729028028109
 30
0.0
 10
969.897938617032
 20
-2008.937184127936
 30
0.0
 10
969.897938617032
 20
-2051.145340227763
 30
0.0
 10
935.6814675426359
 20
-2085.361811302155
 30
0.0
 10
893.4733114428158
 20
-2085.361811302155
 30
0.0
 10
851.2651553429829
 20
-2085.361811302155
 30
0.0
 10
817.0486842685837
 20
-2051.145340227763
 30
0.0
 10
817.0486842685837
 20
-2008.937184127936
 30
0.0
 10
817.0486842685837
 20
-2008.937184127936
 30
0.0
 10
817.0486842685837
 20
-2008.937184127936
 30
0.0
 10
817.0486842685837
 20
-2008.937184127936
 30
0.0
  0
ENDBLK
  5
66D
330
66A
100
AcDbEntity
  8
0
100
AcDbBlockEnd
  0
BLOCK
  5
671
330
66F
100
AcDbEntity
  8
0
100
AcDbBlockBegin
  2
BLOCK_145
 70
     0
 10
0.0
 20
0.0
 30
0.0
  3
BLOCK_145
  1

  0
SPLINE
  5
673
330
66F
100
AcDbEntity
  8
PUMP_-_ALTO
 62
   250
100
AcDbSpline
210
0.0
220
0.0
230
1.0
 70
     8
 71
     3
 72
     8
 73
     4
 74
     0
 42
0.0000000001
 43
0.0000000001
 12
1.0
 22
0.0
 32
0.0
 13
1.0
 23
0.0
 33
0.0
 40
0.0
 40
0.0
 40
0.0
 40
0.0
 40
1.0
 40
1.0
 40
1.0
 40
1.0
 10
825.1762761355641
 20
-1999.317883380436
 30
0.0
 10
822.5199795821279
 20
-1999.317883380436
 30
0.0
 10
820.3666257618236
 20
-2001.471237200746
 30
0.0
 10
820.3666257618236
 20
-2004.127533754186
 30
0.0
  0
ENDBLK
  5
672
330
66F
100
AcDbEntity
  8
0
100
AcDbBlockEnd
  0
BLOCK
  5
676
330
674
100
AcDbEntity
  8
0
100
AcDbBlockBegin
  2
BLOCK_146
 70
     0
 10
0.0
 20
0.0
 30
0.0
  3
BLOCK_146
  1

  0
POLYLINE
  5
678
330
674
100
AcDbEntity
  8
PUMP_-_ALTO
 62
   250
100
AcDb2dPolyline
 66
     1
 10
0.0
 20
0.0
 30
0.0
  0
VERTEX
  5
679
330
678
100
AcDbEntity
  8
PUMP_-_ALTO
 62
   250
100
AcDbVertex
100
AcDb2dVertex
 10
834.2415270234192
 20
-2018.556484875436
 30
0.0
  0
VERTEX
  5
67A
330
678
100
AcDbEntity
  8
PUMP_-_ALTO
 62
   250
100
AcDbVertex
100
AcDb2dVertex
 10
834.2415270234192
 20
-1999.317883380436
 30
0.0
  0
SEQEND
  5
67B
330
678
100
AcDbEntity
  8
PUMP_-_ALTO
 62
   250
  0
ENDBLK
  5
677
330
674
100
AcDbEntity
  8
0
100
AcDbBlockEnd
  0
BLOCK
  5
67E
330
67C
100
AcDbEntity
  8
0
100
AcDbBlockBegin
  2
BLOCK_147
 70
     0
 10
0.0
 20
0.0
 30
0.0
  3
BLOCK_147
  1

  0
SPLINE
  5
680
330
67C
100
AcDbEntity
  8
PUMP_-_ALTO
 62
   250
100
AcDbSpline
210
0.0
220
0.0
230
1.0
 70
     8
 71
     3
 72
    11
 73
     7
 74
     0
 42
0.0000000001
 43
0.0000000001
 12
1.0
 22
0.0
 32
0.0
 13
1.0
 23
0.0
 33
0.0
 40
0.0
 40
0.0
 40
0.0
 40
0.0
 40
1.0
 40
1.0
 40
1.0
 40
2.0
 40
2.0
 40
2.0
 40
2.0
 10
848.0684096218079
 20
-1999.317883380436
 30
0.0
 10
842.7558165149193
 20
-1999.495819827656
 30
0.0
 10
838.5933548651745
 20
-2003.946773459141
 30
0.0
 10
838.7712913123981
 20
-2009.259366566027
 30
0.0
 10
838.9408598843778
 20
-2014.322122627075
 30
0.0
 10
843.0056535607528
 20
-2018.38691630345
 30
0.0
 10
848.0684096218079
 20
-2018.556484875436
 30
0.0
  0
ENDBLK
  5
67F
330
67C
100
AcDbEntity
  8
0
100
AcDbBlockEnd
  0
BLOCK
  5
683
330
681
100
AcDbEntity
  8
0
100
AcDbBlockBegin
  2
BLOCK_148
 70
     0
 10
0.0
 20
0.0
 30
0.0
  3
BLOCK_148
  1

  0
SPLINE
  5
685
330
681
100
AcDbEntity
  8
PUMP_-_ALTO
 62
   250
100
AcDbSpline
210
0.0
220
0.0
230
1.0
 70
     8
 71
     3
 72
     8
 73
     4
 74
     0
 42
0.0000000001
 43
0.0000000001
 12
1.0
 22
0.0
 32
0.0
 13
1.0
 23
0.0
 33
0.0
 40
0.0
 40
0.0
 40
0.0
 40
0.0
 40
1.0
 40
1.0
 40
1.0
 40
1.0
 10
858.5061871058457
 20
-2047.000253177182
 30
0.0
 10
878.1439342783192
 20
-2065.508459826845
 30
0.0
 10
908.8026886072996
 20
-2065.508459826845
 30
0.0
 10
928.4404357797763
 20
-2047.000253177182
 30
0.0
  0
ENDBLK
  5
684
330
681
100
AcDbEntity
  8
0
100
AcDbBlockEnd
  0
BLOCK
  5
688
330
686
100
AcDbEntity
  8
0
100
AcDbBlockBegin
  2
BLOCK_149
 70
     0
 10
0.0
 20
0.0
 30
0.0
  3
BLOCK_149
  1

  0
POLYLINE
  5
68A
330
686
100
AcDbEntity
  8
PUMP_-_ALTO
 62
   250
100
AcDb2dPolyline
 66
     1
 10
0.0
 20
0.0
 30
0.0
  0
VERTEX
  5
68B
330
68A
100
AcDbEntity
  8
PUMP_-_ALTO
 62
   250
100
AcDbVertex
100
AcDb2dVertex
 10
922.8768713434946
 20
-2032.985435996687
 30
0.0
  0
VERTEX
  5
68C
330
68A
100
AcDbEntity
  8
PUMP_-_ALTO
 62
   250
100
AcDbVertex
100
AcDb2dVertex
 10
864.0697515421306
 20
-2032.985435996687
 30
0.0
  0
SEQEND
  5
68D
330
68A
100
AcDbEntity
  8
PUMP_-_ALTO
 62
   250
  0
ENDBLK
  5
689
330
686
100
AcDbEntity
  8
0
100
AcDbBlockEnd
  0
BLOCK
  5
690
330
68E
100
AcDbEntity
  8
0
100
AcDbBlockBegin
  2
BLOCK_150
 70
     0
 10
0.0
 20
0.0
 30
0.0
  3
BLOCK_150
  1

  0
SPLINE
  5
692
330
68E
100
AcDbEntity
  8
PUMP_-_ALTO
 62
   250
100
AcDbSpline
210
0.0
220
0.0
230
1.0
 70
     8
 71
     3
 72
    11
 73
     7
 74
     0
 42
0.0000000001
 43
0.0000000001
 12
1.0
 22
0.0
 32
0.0
 13
1.0
 23
0.0
 33
0.0
 40
0.0
 40
0.0
 40
0.0
 40
0.0
 40
1.0
 40
1.0
 40
1.0
 40
2.0
 40
2.0
 40
2.0
 40
2.0
 10
839.3141016410493
 20
-2018.556484875443
 30
0.0
 10
844.6266947479378
 20
-2048.467790511831
 30
0.0
 10
873.1813065539151
 20
-2068.408987036569
 30
0.0
 10
903.0926121903098
 20
-2063.09639392969
 30
0.0
 10
925.8116233180829
 20
-2059.0612353385
 30
0.0
 10
943.5973626533739
 20
-2041.2754960032
 30
0.0
 10
947.6325212445598
 20
-2018.556484875443
 30
0.0
  0
ENDBLK
  5
691
330
68E
100
AcDbEntity
  8
0
100
AcDbBlockEnd
  0
BLOCK
  5
695
330
693
100
AcDbEntity
  8
0
100
AcDbBlockBegin
  2
BLOCK_151
 70
     0
 10
0.0
 20
0.0
 30
0.0
  3
BLOCK_151
  1

  0
SPLINE
  5
697
330
693
100
AcDbEntity
  8
PUMP_-_ALTO
 62
   250
100
AcDbSpline
210
0.0
220
0.0
230
1.0
 70
    11
 71
     3
 72
    20
 73
    16
 74
     0
 42
0.0000000001
 43
0.0000000001
 12
1.0
 22
0.0
 32
0.0
 13
1.0
 23
0.0
 33
0.0
 40
0.0
 40
0.0
 40
0.0
 40
0.0
 40
1.0
 40
1.0
 40
1.0
 40
2.0
 40
2.0
 40
2.0
 40
3.0
 40
3.0
 40
3.0
 40
4.0
 40
4.0
 40
4.0
 40
5.0
 40
5.0
 40
5.0
 40
5.0
 10
900.4473044847433
 20
-2045.490526968432
 30
0.0
 10
900.4473044847433
 20
-2042.435785931978
 30
0.0
 10
902.9236613781067
 20
-2039.959429038621
 30
0.0
 10
905.9784024145611
 20
-2039.959429038621
 30
0.0
 10
909.0331434510156
 20
-2039.959429038621
 30
0.0
 10
911.5095003443661
 20
-2042.435785931978
 30
0.0
 10
911.5095003443661
 20
-2045.490526968432
 30
0.0
 10
911.5095003443661
 20
-2048.545268004887
 30
0.0
 10
909.0331434510156
 20
-2051.021624898244
 30
0.0
 10
905.9784024145611
 20
-2051.021624898244
 30
0.0
 10
902.9236613781067
 20
-2051.021624898244
 30
0.0
 10
900.4473044847433
 20
-2048.545268004887
 30
0.0
 10
900.4473044847433
 20
-2045.490526968432
 30
0.0
 10
900.4473044847433
 20
-2045.490526968432
 30
0.0
 10
900.4473044847433
 20
-2045.490526968432
 30
0.0
 10
900.4473044847433
 20
-2045.490526968432
 30
0.0
  0
ENDBLK
  5
696
330
693
100
AcDbEntity
  8
0
100
AcDbBlockEnd
  0
BLOCK
  5
69A
330
698
100
AcDbEntity
  8
0
100
AcDbBlockBegin
  2
BLOCK_152
 70
     0
 10
0.0
 20
0.0
 30
0.0
  3
BLOCK_152
  1

  0
SPLINE
  5
69C
330
698
100
AcDbEntity
  8
PUMP_-_ALTO
 62
   250
100
AcDbSpline
210
0.0
220
0.0
230
1.0
 70
    11
 71
     3
 72
    20
 73
    16
 74
     0
 42
0.0000000001
 43
0.0000000001
 12
1.0
 22
0.0
 32
0.0
 13
1.0
 23
0.0
 33
0.0
 40
0.0
 40
0.0
 40
0.0
 40
0.0
 40
1.0
 40
1.0
 40
1.0
 40
2.0
 40
2.0
 40
2.0
 40
3.0
 40
3.0
 40
3.0
 40
4.0
 40
4.0
 40
4.0
 40
5.0
 40
5.0
 40
5.0
 40
5.0
 10
920.0225815059131
 20
-2043.085701781557
 30
0.0
 10
920.0225815059131
 20
-2041.279420125221
 30
0.0
 10
921.4868621037144
 20
-2039.815139527407
 30
0.0
 10
923.2931437600565
 20
-2039.815139527407
 30
0.0
 10
925.0994254163987
 20
-2039.815139527407
 30
0.0
 10
926.5637060142064
 20
-2041.279420125221
 30
0.0
 10
926.5637060142064
 20
-2043.085701781557
 30
0.0
 10
926.5637060142064
 20
-2044.891983437899
 30
0.0
 10
925.0994254163987
 20
-2046.356264035701
 30
0.0
 10
923.2931437600565
 20
-2046.356264035701
 30
0.0
 10
921.4868621037144
 20
-2046.356264035701
 30
0.0
 10
920.0225815059131
 20
-2044.891983437899
 30
0.0
 10
920.0225815059131
 20
-2043.085701781557
 30
0.0
 10
920.0225815059131
 20
-2043.085701781557
 30
0.0
 10
920.0225815059131
 20
-2043.085701781557
 30
0.0
 10
920.0225815059131
 20
-2043.085701781557
 30
0.0
  0
ENDBLK
  5
69B
330
698
100
AcDbEntity
  8
0
100
AcDbBlockEnd
  0
BLOCK
  5
69F
330
69D
100
AcDbEntity
  8
0
100
AcDbBlockBegin
  2
BLOCK_153
 70
     0
 10
0.0
 20
0.0
 30
0.0
  3
BLOCK_153
  1

  0
SPLINE
  5
6A1
330
69D
100
AcDbEntity
  8
PUMP_-_ALTO
 62
   250
100
AcDbSpline
210
0.0
220
0.0
230
1.0
 70
    11
 71
     3
 72
    20
 73
    16
 74
     0
 42
0.0000000001
 43
0.0000000001
 12
1.0
 22
0.0
 32
0.0
 13
1.0
 23
0.0
 33
0.0
 40
0.0
 40
0.0
 40
0.0
 40
0.0
 40
1.0
 40
1.0
 40
1.0
 40
2.0
 40
2.0
 40
2.0
 40
3.0
 40
3.0
 40
3.0
 40
4.0
 40
4.0
 40
4.0
 40
5.0
 40
5.0
 40
5.0
 40
5.0
 10
895.8781366296909
 20
-2045.490526968432
 30
0.0
 10
895.8781366296909
 20
-2039.91230420621
 30
0.0
 10
900.4001796523324
 20
-2035.390261183556
 30
0.0
 10
905.9784024145611
 20
-2035.390261183556
 30
0.0
 10
911.5566251767833
 20
-2035.390261183556
 30
0.0
 10
916.0786681994377
 20
-2039.91230420621
 30
0.0
 10
916.0786681994377
 20
-2045.490526968432
 30
0.0
 10
916.0786681994377
 20
-2051.068749730654
 30
0.0
 10
911.5566251767833
 20
-2055.590792753309
 30
0.0
 10
905.9784024145611
 20
-2055.590792753309
 30
0.0
 10
900.4001796523324
 20
-2055.590792753309
 30
0.0
 10
895.8781366296909
 20
-2051.068749730654
 30
0.0
 10
895.8781366296909
 20
-2045.490526968432
 30
0.0
 10
895.8781366296909
 20
-2045.490526968432
 30
0.0
 10
895.8781366296909
 20
-2045.490526968432
 30
0.0
 10
895.8781366296909
 20
-2045.490526968432
 30
0.0
  0
ENDBLK
  5
6A0
330
69D
100
AcDbEntity
  8
0
100
AcDbBlockEnd
  0
BLOCK
  5
6A4
330
6A2
100
AcDbEntity
  8
0
100
AcDbBlockBegin
  2
BLOCK_154
 70
     0
 10
0.0
 20
0.0
 30
0.0
  3
BLOCK_154
  1

  0
SPLINE
  5
6A6
330
6A2
100
AcDbEntity
  8
PUMP_-_ALTO
 62
   250
100
AcDbSpline
210
0.0
220
0.0
230
1.0
 70
     8
 71
     3
 72
    11
 73
     7
 74
     0
 42
0.0000000001
 43
0.0000000001
 12
1.0
 22
0.0
 32
0.0
 13
1.0
 23
0.0
 33
0.0
 40
0.0
 40
0.0
 40
0.0
 40
0.0
 40
1.0
 40
1.0
 40
1.0
 40
2.0
 40
2.0
 40
2.0
 40
2.0
 10
938.8782132638141
 20
-2018.556484875436
 30
0.0
 10
944.1908063706899
 20
-2018.378548428216
 30
0.0
 10
948.3532680204441
 20
-2013.927594796724
 30
0.0
 10
948.1753315732238
 20
-2008.615001689845
 30
0.0
 10
948.0057630012442
 20
-2003.55224562879
 30
0.0
 10
943.940969324866
 20
-1999.487451952415
 30
0.0
 10
938.8782132638141
 20
-1999.317883380436
 30
0.0
  0
ENDBLK
  5
6A5
330
6A2
100
AcDbEntity
  8
0
100
AcDbBlockEnd
  0
BLOCK
  5
6A9
330
6A7
100
AcDbEntity
  8
0
100
AcDbBlockBegin
  2
BLOCK_155
 70
     0
 10
0.0
 20
0.0
 30
0.0
  3
BLOCK_155
  1

  0
POLYLINE
  5
6AB
330
6A7
100
AcDbEntity
  8
PUMP_-_ALTO
 62
   250
100
AcDb2dPolyline
 66
     1
 10
0.0
 20
0.0
 30
0.0
  0
VERTEX
  5
6AC
330
6AB
100
AcDbEntity
  8
PUMP_-_ALTO
 62
   250
100
AcDbVertex
100
AcDb2dVertex
 10
952.7050958622027
 20
-2018.556484875436
 30
0.0
  0
VERTEX
  5
6AD
330
6AB
100
AcDbEntity
  8
PUMP_-_ALTO
 62
   250
100
AcDbVertex
100
AcDb2dVertex
 10
952.7050958622027
 20
-1999.317883380436
 30
0.0
  0
SEQEND
  5
6AE
330
6AB
100
AcDbEntity
  8
PUMP_-_ALTO
 62
   250
  0
ENDBLK
  5
6AA
330
6A7
100
AcDbEntity
  8
0
100
AcDbBlockEnd
  0
BLOCK
  5
6B1
330
6AF
100
AcDbEntity
  8
0
100
AcDbBlockBegin
  2
BLOCK_156
 70
     0
 10
0.0
 20
0.0
 30
0.0
  3
BLOCK_156
  1

  0
SPLINE
  5
6B3
330
6AF
100
AcDbEntity
  8
PUMP_-_ALTO
 62
   250
100
AcDbSpline
210
0.0
220
0.0
230
1.0
 70
     8
 71
     3
 72
     8
 73
     4
 74
     0
 42
0.0000000001
 43
0.0000000001
 12
1.0
 22
0.0
 32
0.0
 13
1.0
 23
0.0
 33
0.0
 40
0.0
 40
0.0
 40
0.0
 40
0.0
 40
1.0
 40
1.0
 40
1.0
 40
1.0
 10
966.5799971238016
 20
-2004.127533754186
 30
0.0
 10
966.5799971238016
 20
-2001.471237200746
 30
0.0
 10
964.4266433034941
 20
-1999.317883380436
 30
0.0
 10
961.7703467500451
 20
-1999.317883380436
 30
0.0
  0
ENDBLK
  5
6B2
330
6AF
100
AcDbEntity
  8
0
100
AcDbBlockEnd
  0
BLOCK
  5
6B6
330
6B4
100
AcDbEntity
  8
0
100
AcDbBlockBegin
  2
BLOCK_157
 70
     0
 10
0.0
 20
0.0
 30
0.0
  3
BLOCK_157
  1

  0
SPLINE
  5
6B8
330
6B4
100
AcDbEntity
  8
PUMP_-_ALTO
 62
   250
100
AcDbSpline
210
0.0
220
0.0
230
1.0
 70
    11
 71
     3
 72
    20
 73
    16
 74
     0
 42
0.0000000001
 43
0.0000000001
 12
1.0
 22
0.0
 32
0.0
 13
1.0
 23
0.0
 33
0.0
 40
0.0
 40
0.0
 40
0.0
 40
0.0
 40
1.0
 40
1.0
 40
1.0
 40
2.0
 40
2.0
 40
2.0
 40
3.0
 40
3.0
 40
3.0
 40
4.0
 40
4.0
 40
4.0
 40
5.0
 40
5.0
 40
5.0
 40
5.0
 10
957.5378544211554
 20
-2008.937184127936
 30
0.0
 10
957.5378544211554
 20
-2007.1309024716
 30
0.0
 10
959.002135018963
 20
-2005.666621873786
 30
0.0
 10
960.8084166753052
 20
-2005.666621873786
 30
0.0
 10
962.6146983316346
 20
-2005.666621873786
 30
0.0
 10
964.0789789294487
 20
-2007.1309024716
 30
0.0
 10
964.0789789294487
 20
-2008.937184127936
 30
0.0
 10
964.0789789294487
 20
-2010.743465784278
 30
0.0
 10
962.6146983316346
 20
-2012.207746382086
 30
0.0
 10
960.8084166753052
 20
-2012.207746382086
 30
0.0
 10
959.002135018963
 20
-2012.207746382086
 30
0.0
 10
957.5378544211554
 20
-2010.743465784278
 30
0.0
 10
957.5378544211554
 20
-2008.937184127936
 30
0.0
 10
957.5378544211554
 20
-2008.937184127936
 30
0.0
 10
957.5378544211554
 20
-2008.937184127936
 30
0.0
 10
957.5378544211554
 20
-2008.937184127936
 30
0.0
  0
ENDBLK
  5
6B7
330
6B4
100
AcDbEntity
  8
0
100
AcDbBlockEnd
  0
BLOCK
  5
6BB
330
6B9
100
AcDbEntity
  8
0
100
AcDbBlockBegin
  2
BLOCK_158
 70
     0
 10
0.0
 20
0.0
 30
0.0
  3
BLOCK_158
  1

  0
SPLINE
  5
6BD
330
6B9
100
AcDbEntity
  8
PUMP_-_ALTO
 62
   250
100
AcDbSpline
210
0.0
220
0.0
230
1.0
 70
     8
 71
     3
 72
    20
 73
    16
 74
     0
 42
0.0000000001
 43
0.0000000001
 12
1.0
 22
0.0
 32
0.0
 13
1.0
 23
0.0
 33
0.0
 40
0.0
 40
0.0
 40
0.0
 40
0.0
 40
1.0
 40
1.0
 40
1.0
 40
2.0
 40
2.0
 40
2.0
 40
3.0
 40
3.0
 40
3.0
 40
4.0
 40
4.0
 40
4.0
 40
5.0
 40
5.0
 40
5.0
 40
5.0
 10
973.8556759080125
 20
-2070.446543341448
 30
0.0
 10
955.1343362996796
 20
-2094.22695619356
 30
0.0
 10
926.0870655353544
 20
-2109.496886533509
 30
0.0
 10
893.4733114428223
 20
-2109.496886533509
 30
0.0
 10
837.005186737824
 20
-2109.496886533509
 30
0.0
 10
791.2287270643797
 20
-2063.720426860077
 30
0.0
 10
791.2287270643797
 20
-2007.252302155089
 30
0.0
 10
791.2287270643797
 20
-2007.252302155089
 30
0.0
 10
791.2287270643797
 20
-2007.252302155089
 30
0.0
 10
791.2287270643797
 20
-2007.252302155089
 30
0.0
 10
791.2287270643797
 20
-1950.7841774501
 30
0.0
 10
837.005186737824
 20
-1905.007717776669
 30
0.0
 10
893.4733114428223
 20
-1905.007717776669
 30
0.0
 10
919.7221662861552
 20
-1905.007717776669
 30
0.0
 10
943.6607692295886
 20
-1914.899081995352
 30
0.0
 10
961.7650875936872
 20
-1931.157777753283
 30
0.0
  0
ENDBLK
  5
6BC
330
6B9
100
AcDbEntity
  8
0
100
AcDbBlockEnd
  0
ENDSEC
  0
SECTION
  2
ENTITIES
  0
INSERT
  5
43
330
1F
100
AcDbEntity
  8
CARTIGLIO
100
AcDbBlockReference
  2
BLOCK_2
 10
0.0
 20
0.0
 30
0.0
  0
MTEXT
  5
111
330
1F
100
AcDbEntity
  8
CARTIGLIO
 62
   250
100
AcDbMText
 10
1485.465072472397
 20
-2886.583320425849
 30
0.0
 40
17.48366666229575
 41
0.0
 71
     7
 72
     1
  1
\fArial|b0|i0|c0|p34;\W1;Drawing
  0
MTEXT
  5
112
330
1F
100
AcDbEntity
  8
CARTIGLIO
 62
   250
100
AcDbMText
 10
1504.445745303956
 20
-2924.682644854631
 30
0.0
 40
22.47899999438025
 41
0.0
 71
     7
 72
     1
  1
\fArial|b0|i0|c0|p34;\W1;O107LW-2-DGG50H
  0
INSERT
  5
114
330
1F
100
AcDbEntity
  8
CARTIGLIO
100
AcDbBlockReference
  2
BLOCK_6
 10
0.0
 20
0.0
 30
0.0
  0
POLYLINE
  5
138
330
1F
100
AcDbEntity
  8
PUMP_-_VISTA_LATO
 62
   250
100
AcDb2dPolyline
 66
     1
 10
0.0
 20
0.0
 30
0.0
  0
VERTEX
  5
139
330
138
100
AcDbEntity
  8
PUMP_-_VISTA_LATO
 62
   250
100
AcDbVertex
100
AcDb2dVertex
 10
1051.081890077761
 20
-750.7468814724072
 30
0.0
  0
VERTEX
  5
13A
330
138
100
AcDbEntity
  8
PUMP_-_VISTA_LATO
 62
   250
100
AcDbVertex
100
AcDb2dVertex
 10
1051.081890077761
 20
-1219.035392406508
 30
0.0
  0
SEQEND
  5
13B
330
138
100
AcDbEntity
  8
PUMP_-_VISTA_LATO
 62
   250
  0
POLYLINE
  5
13C
330
1F
100
AcDbEntity
  8
PUMP_-_VISTA_LATO
 62
   250
100
AcDb2dPolyline
 66
     1
 10
0.0
 20
0.0
 30
0.0
  0
VERTEX
  5
13D
330
13C
100
AcDbEntity
  8
PUMP_-_VISTA_LATO
 62
   250
100
AcDbVertex
100
AcDb2dVertex
 10
791.0818901427622
 20
-1257.245108559623
 30
0.0
  0
VERTEX
  5
13E
330
13C
100
AcDbEntity
  8
PUMP_-_VISTA_LATO
 62
   250
100
AcDbVertex
100
AcDb2dVertex
 10
791.0818901427622
 20
-750.7468814724072
 30
0.0
  0
SEQEND
  5
13F
330
13C
100
AcDbEntity
  8
PUMP_-_VISTA_LATO
 62
   250
  0
INSERT
  5
141
330
1F
100
AcDbEntity
  8
PUMP_-_VISTA_LATO
100
AcDbBlockReference
  2
BLOCK_7
 10
0.0
 20
0.0
 30
0.0
  0
INSERT
  5
149
330
1F
100
AcDbEntity
  8
PUMP_-_VISTA_LATO
100
AcDbBlockReference
  2
BLOCK_8
 10
0.0
 20
0.0
 30
0.0
  0
INSERT
  5
154
330
1F
100
AcDbEntity
  8
PUMP_-_VISTA_LATO
100
AcDbBlockReference
  2
BLOCK_9
 10
0.0
 20
0.0
 30
0.0
  0
INSERT
  5
15F
330
1F
100
AcDbEntity
  8
PUMP_-_VISTA_LATO
100
AcDbBlockReference
  2
BLOCK_10
 10
0.0
 20
0.0
 30
0.0
  0
POLYLINE
  5
164
330
1F
100
AcDbEntity
  8
PUMP_-_VISTA_LATO
 62
   250
100
AcDb2dPolyline
 66
     1
 10
0.0
 20
0.0
 30
0.0
  0
VERTEX
  5
165
330
164
100
AcDbEntity
  8
PUMP_-_VISTA_LATO
 62
   250
100
AcDbVertex
100
AcDb2dVertex
 10
893.4181402093618
 20
-848.4014301708191
 30
0.0
  0
VERTEX
  5
166
330
164
100
AcDbEntity
  8
PUMP_-_VISTA_LATO
 62
   250
100
AcDbVertex
100
AcDb2dVertex
 10
893.4181402093618
 20
-896.7429879853597
 30
0.0
  0
SEQEND
  5
167
330
164
100
AcDbEntity
  8
PUMP_-_VISTA_LATO
 62
   250
  0
INSERT
  5
169
330
1F
100
AcDbEntity
  8
PUMP_-_VISTA_LATO
100
AcDbBlockReference
  2
BLOCK_11
 10
0.0
 20
0.0
 30
0.0
  0
INSERT
  5
171
330
1F
100
AcDbEntity
  8
PUMP_-_VISTA_LATO
100
AcDbBlockReference
  2
BLOCK_12
 10
0.0
 20
0.0
 30
0.0
  0
INSERT
  5
17C
330
1F
100
AcDbEntity
  8
PUMP_-_VISTA_LATO
100
AcDbBlockReference
  2
BLOCK_13
 10
0.0
 20
0.0
 30
0.0
  0
INSERT
  5
187
330
1F
100
AcDbEntity
  8
PUMP_-_VISTA_LATO
100
AcDbBlockReference
  2
BLOCK_14
 10
0.0
 20
0.0
 30
0.0
  0
INSERT
  5
18D
330
1F
100
AcDbEntity
  8
PUMP_-_VISTA_LATO
100
AcDbBlockReference
  2
BLOCK_15
 10
0.0
 20
0.0
 30
0.0
  0
POLYLINE
  5
1A2
330
1F
100
AcDbEntity
  8
PUMP_-_VISTA_LATO
 62
   250
100
AcDb2dPolyline
 66
     1
 10
0.0
 20
0.0
 30
0.0
  0
VERTEX
  5
1A3
330
1A2
100
AcDbEntity
  8
PUMP_-_VISTA_LATO
 62
   250
100
AcDbVertex
100
AcDb2dVertex
 10
839.118556832393
 20
-917.6450831802865
 30
0.0
  0
VERTEX
  5
1A4
330
1A2
100
AcDbEntity
  8
PUMP_-_VISTA_LATO
 62
   250
100
AcDbVertex
100
AcDb2dVertex
 10
632.421427679551
 20
-917.6450831802865
 30
0.0
  0
SEQEND
  5
1A5
330
1A2
100
AcDbEntity
  8
PUMP_-_VISTA_LATO
 62
   250
  0
POLYLINE
  5
1A6
330
1F
100
AcDbEntity
  8
PUMP_-_VISTA_LATO
 62
   250
100
AcDb2dPolyline
 66
     1
 10
0.0
 20
0.0
 30
0.0
  0
VERTEX
  5
1A7
330
1A6
100
AcDbEntity
  8
PUMP_-_VISTA_LATO
 62
   250
100
AcDbVertex
100
AcDb2dVertex
 10
784.2412504516705
 20
-1260.125420605075
 30
0.0
  0
VERTEX
  5
1A8
330
1A6
100
AcDbEntity
  8
PUMP_-_VISTA_LATO
 62
   250
100
AcDbVertex
100
AcDb2dVertex
 10
732.421464889853
 20
-1260.125420605075
 30
0.0
  0
SEQEND
  5
1A9
330
1A6
100
AcDbEntity
  8
PUMP_-_VISTA_LATO
 62
   250
  0
POLYLINE
  5
1AA
330
1F
100
AcDbEntity
  8
PUMP_-_VISTA_LATO
 62
   250
100
AcDb2dPolyline
 66
     1
 10
0.0
 20
0.0
 30
0.0
  0
VERTEX
  5
1AB
330
1AA
100
AcDbEntity
  8
PUMP_-_VISTA_LATO
 62
   250
100
AcDbVertex
100
AcDb2dVertex
 10
735.7547601017588
 20
-1181.255444102912
 30
0.0
  0
VERTEX
  5
1AC
330
1AA
100
AcDbEntity
  8
PUMP_-_VISTA_LATO
 62
   250
100
AcDbVertex
100
AcDb2dVertex
 10
735.7547601017588
 20
-1341.11796662337
 30
0.0
  0
SEQEND
  5
1AD
330
1AA
100
AcDbEntity
  8
PUMP_-_VISTA_LATO
 62
   250
  0
POLYLINE
  5
1AE
330
1F
100
AcDbEntity
  8
PUMP_-_VISTA_LATO
100
AcDb2dPolyline
 66
     1
 10
0.0
 20
0.0
 30
0.0
  0
VERTEX
  5
1AF
330
1AE
100
AcDbEntity
  8
PUMP_-_VISTA_LATO
100
AcDbVertex
100
AcDb2dVertex
 10
735.7547604050835
 20
-1260.125422916221
 30
0.0
  0
VERTEX
  5
1B0
330
1AE
100
AcDbEntity
  8
PUMP_-_VISTA_LATO
100
AcDbVertex
100
AcDb2dVertex
 10
739.0880937384234
 20
-1280.125422916225
 30
0.0
  0
VERTEX
  5
1B1
330
1AE
100
AcDbEntity
  8
PUMP_-_VISTA_LATO
100
AcDbVertex
100
AcDb2dVertex
 10
732.4214270717501
 20
-1280.125422916225
 30
0.0
  0
VERTEX
  5
1B2
330
1AE
100
AcDbEntity
  8
PUMP_-_VISTA_LATO
100
AcDbVertex
100
AcDb2dVertex
 10
735.7547604050835
 20
-1260.125422916221
 30
0.0
  0
SEQEND
  5
1B4
330
1AE
100
AcDbEntity
  8
PUMP_-_VISTA_LATO
  0
HATCH
  5
1B3
330
1F
100
AcDbEntity
  8
PUMP_-_VISTA_LATO
 62
   250
100
AcDbHatch
 10
0.0
 20
0.0
 30
0.0
210
0.0
220
0.0
230
1.0
  2
SOLID
 70
     1
 71
     0
 91
        1
 92
        1
 93
        3
 72
     1
 10
735.7547604050835
 20
-1260.125422916221
 11
739.0880937384234
 21
-1280.125422916225
 72
     1
 10
739.0880937384234
 20
-1280.125422916225
 11
732.4214270717501
 21
-1280.125422916225
 72
     1
 10
732.4214270717501
 20
-1280.125422916225
 11
735.7547604050835
 21
-1260.125422916221
 97
        0
 75
     2
 76
     1
 98
        0
  0
POLYLINE
  5
1B5
330
1F
100
AcDbEntity
  8
PUMP_-_VISTA_LATO
100
AcDb2dPolyline
 66
     1
 10
0.0
 20
0.0
 30
0.0
  0
VERTEX
  5
1B6
330
1B5
100
AcDbEntity
  8
PUMP_-_VISTA_LATO
100
AcDbVertex
100
AcDb2dVertex
 10
735.7547601016754
 20
-1341.11796662337
 30
0.0
  0
VERTEX
  5
1B7
330
1B5
100
AcDbEntity
  8
PUMP_-_VISTA_LATO
100
AcDbVertex
100
AcDb2dVertex
 10
732.421464889853
 20
-1321.117572991013
 30
0.0
  0
VERTEX
  5
1B8
330
1B5
100
AcDbEntity
  8
PUMP_-_VISTA_LATO
100
AcDbVertex
100
AcDb2dVertex
 10
739.0881187044432
 20
-1321.117700086505
 30
0.0
  0
VERTEX
  5
1B9
330
1B5
100
AcDbEntity
  8
PUMP_-_VISTA_LATO
100
AcDbVertex
100
AcDb2dVertex
 10
735.7547601016754
 20
-1341.11796662337
 30
0.0
  0
SEQEND
  5
1BB
330
1B5
100
AcDbEntity
  8
PUMP_-_VISTA_LATO
  0
HATCH
  5
1BA
330
1F
100
AcDbEntity
  8
PUMP_-_VISTA_LATO
 62
   250
100
AcDbHatch
 10
0.0
 20
0.0
 30
0.0
210
0.0
220
0.0
230
1.0
  2
SOLID
 70
     1
 71
     0
 91
        1
 92
        1
 93
        3
 72
     1
 10
735.7547601016754
 20
-1341.11796662337
 11
732.421464889853
 21
-1321.117572991013
 72
     1
 10
732.421464889853
 20
-1321.117572991013
 11
739.0881187044432
 21
-1321.117700086505
 72
     1
 10
739.0881187044432
 20
-1321.117700086505
 11
735.7547601016754
 21
-1341.11796662337
 97
        0
 75
     2
 76
     1
 98
        0
  0
MTEXT
  5
1BC
330
1F
100
AcDbEntity
  8
PUMP_-_VISTA_LATO
 62
   250
100
AcDbMText
 10
683.3001578000273
 20
-1231.607640276408
 30
0.0
 40
22.47899999438025
 41
0.0
 71
     7
 72
     1
  1
\fArial|b0|i0|c0|p34;\W1;81
 11
6.123233995736766E-17
 21
1.0
 31
0.0
  0
MTEXT
  5
1BD
330
1F
100
AcDbEntity
  8
PUMP_-_VISTA_LATO
 62
   250
100
AcDbMText
 10
721.3994687714053
 20
-1244.836806939767
 30
0.0
 40
22.47899999438025
 41
0.0
 71
     7
 72
     1
  1
\fArial|b0|i0|c0|p34;\W1;[3,2]
 11
6.123233995736766E-17
 21
1.0
 31
0.0
  0
POLYLINE
  5
1BE
330
1F
100
AcDbEntity
  8
PUMP_-_VISTA_LATO
 62
   250
100
AcDb2dPolyline
 66
     1
 10
0.0
 20
0.0
 30
0.0
  0
VERTEX
  5
1BF
330
1BE
100
AcDbEntity
  8
PUMP_-_VISTA_LATO
 62
   250
100
AcDbVertex
100
AcDb2dVertex
 10
823.1304885557822
 20
-1341.117963287805
 30
0.0
  0
VERTEX
  5
1C0
330
1BE
100
AcDbEntity
  8
PUMP_-_VISTA_LATO
 62
   250
100
AcDbVertex
100
AcDb2dVertex
 10
632.421447794833
 20
-1341.117963287805
 30
0.0
  0
SEQEND
  5
1C1
330
1BE
100
AcDbEntity
  8
PUMP_-_VISTA_LATO
 62
   250
  0
POLYLINE
  5
1C2
330
1F
100
AcDbEntity
  8
PUMP_-_VISTA_LATO
 62
   250
100
AcDb2dPolyline
 66
     1
 10
0.0
 20
0.0
 30
0.0
  0
VERTEX
  5
1C3
330
1C2
100
AcDbEntity
  8
PUMP_-_VISTA_LATO
 62
   250
100
AcDbVertex
100
AcDb2dVertex
 10
635.7547601017553
 20
-1341.117963287799
 30
0.0
  0
VERTEX
  5
1C4
330
1C2
100
AcDbEntity
  8
PUMP_-_VISTA_LATO
 62
   250
100
AcDbVertex
100
AcDb2dVertex
 10
635.7547601017553
 20
-917.6450859278782
 30
0.0
  0
SEQEND
  5
1C5
330
1C2
100
AcDbEntity
  8
PUMP_-_VISTA_LATO
 62
   250
  0
MTEXT
  5
1C6
330
1F
100
AcDbEntity
  8
PUMP_-_VISTA_LATO
 62
   250
100
AcDbMText
 10
582.3526427614486
 20
-1112.556229207267
 30
0.0
 40
22.47899999438025
 41
0.0
 71
     7
 72
     1
  1
\fArial|b0|i0|c0|p34;\W1;425
 11
6.123233995736766E-17
 21
1.0
 31
0.0
  0
MTEXT
  5
1C7
330
1F
100
AcDbEntity
  8
PUMP_-_VISTA_LATO
 62
   250
100
AcDbMText
 10
620.4519537328265
 20
-1125.788840966111
 30
0.0
 40
22.47899999438025
 41
0.0
 71
     7
 72
     1
  1
\fArial|b0|i0|c0|p34;\W1;[16,7]
 11
6.123233995736766E-17
 21
1.0
 31
0.0
  0
POLYLINE
  5
1C8
330
1F
100
AcDbEntity
  8
PUMP_-_VISTA_LATO
100
AcDb2dPolyline
 66
     1
 10
0.0
 20
0.0
 30
0.0
  0
VERTEX
  5
1C9
330
1C8
100
AcDbEntity
  8
PUMP_-_VISTA_LATO
100
AcDbVertex
100
AcDb2dVertex
 10
635.7547610128845
 20
-917.6450831802865
 30
0.0
  0
VERTEX
  5
1CA
330
1C8
100
AcDbEntity
  8
PUMP_-_VISTA_LATO
100
AcDbVertex
100
AcDb2dVertex
 10
639.0880943462308
 20
-937.6450831802937
 30
0.0
  0
VERTEX
  5
1CB
330
1C8
100
AcDbEntity
  8
PUMP_-_VISTA_LATO
100
AcDbVertex
100
AcDb2dVertex
 10
632.421427679551
 20
-937.6450831802937
 30
0.0
  0
VERTEX
  5
1CC
330
1C8
100
AcDbEntity
  8
PUMP_-_VISTA_LATO
100
AcDbVertex
100
AcDb2dVertex
 10
635.7547610128845
 20
-917.6450831802865
 30
0.0
  0
SEQEND
  5
1CE
330
1C8
100
AcDbEntity
  8
PUMP_-_VISTA_LATO
  0
HATCH
  5
1CD
330
1F
100
AcDbEntity
  8
PUMP_-_VISTA_LATO
 62
   250
100
AcDbHatch
 10
0.0
 20
0.0
 30
0.0
210
0.0
220
0.0
230
1.0
  2
SOLID
 70
     1
 71
     0
 91
        1
 92
        1
 93
        3
 72
     1
 10
635.7547610128845
 20
-917.6450831802865
 11
639.0880943462308
 21
-937.6450831802937
 72
     1
 10
639.0880943462308
 20
-937.6450831802937
 11
632.421427679551
 21
-937.6450831802937
 72
     1
 10
632.421427679551
 20
-937.6450831802937
 11
635.7547610128845
 21
-917.6450831802865
 97
        0
 75
     2
 76
     1
 98
        0
  0
POLYLINE
  5
1CF
330
1F
100
AcDbEntity
  8
PUMP_-_VISTA_LATO
100
AcDb2dPolyline
 66
     1
 10
0.0
 20
0.0
 30
0.0
  0
VERTEX
  5
1D0
330
1CF
100
AcDbEntity
  8
PUMP_-_VISTA_LATO
100
AcDbVertex
100
AcDb2dVertex
 10
635.7547603598402
 20
-1341.117964158334
 30
0.0
  0
VERTEX
  5
1D1
330
1CF
100
AcDbEntity
  8
PUMP_-_VISTA_LATO
100
AcDbVertex
100
AcDb2dVertex
 10
632.421447794833
 20
-1321.117911673602
 30
0.0
  0
VERTEX
  5
1D2
330
1CF
100
AcDbEntity
  8
PUMP_-_VISTA_LATO
100
AcDbVertex
100
AcDb2dVertex
 10
639.0880943758132
 20
-1321.117916423182
 30
0.0
  0
VERTEX
  5
1D3
330
1CF
100
AcDbEntity
  8
PUMP_-_VISTA_LATO
100
AcDbVertex
100
AcDb2dVertex
 10
635.7547603598402
 20
-1341.117964158334
 30
0.0
  0
SEQEND
  5
1D5
330
1CF
100
AcDbEntity
  8
PUMP_-_VISTA_LATO
  0
HATCH
  5
1D4
330
1F
100
AcDbEntity
  8
PUMP_-_VISTA_LATO
 62
   250
100
AcDbHatch
 10
0.0
 20
0.0
 30
0.0
210
0.0
220
0.0
230
1.0
  2
SOLID
 70
     1
 71
     0
 91
        1
 92
        1
 93
        3
 72
     1
 10
635.7547603598402
 20
-1341.117964158334
 11
632.421447794833
 21
-1321.117911673602
 72
     1
 10
632.421447794833
 20
-1321.117911673602
 11
639.0880943758132
 21
-1321.117916423182
 72
     1
 10
639.0880943758132
 20
-1321.117916423182
 11
635.7547603598402
 21
-1341.117964158334
 97
        0
 75
     2
 76
     1
 98
        0
  0
INSERT
  5
1D7
330
1F
100
AcDbEntity
  8
PUMP_-_VISTA_LATO
100
AcDbBlockReference
  2
BLOCK_18
 10
0.0
 20
0.0
 30
0.0
  0
INSERT
  5
49C
330
1F
100
AcDbEntity
  8
PUMP_-_FRONTE
100
AcDbBlockReference
  2
BLOCK_84
 10
0.0
 20
0.0
 30
0.0
  0
INSERT
  5
4F8
330
1F
100
AcDbEntity
  8
PUMP_-_FRONTE
100
AcDbBlockReference
  2
BLOCK_93
 10
0.0
 20
0.0
 30
0.0
  0
POLYLINE
  5
503
330
1F
100
AcDbEntity
  8
PUMP_-_FRONTE
 62
   250
100
AcDb2dPolyline
 66
     1
 10
0.0
 20
0.0
 30
0.0
  0
VERTEX
  5
504
330
503
100
AcDbEntity
  8
PUMP_-_FRONTE
 62
   250
100
AcDbVertex
100
AcDb2dVertex
 10
1385.498454111954
 20
-1259.967832027651
 30
0.0
  0
VERTEX
  5
505
330
503
100
AcDbEntity
  8
PUMP_-_FRONTE
 62
   250
100
AcDbVertex
100
AcDb2dVertex
 10
1385.498350802066
 20
-1398.390062915724
 30
0.0
  0
SEQEND
  5
506
330
503
100
AcDbEntity
  8
PUMP_-_FRONTE
 62
   250
  0
POLYLINE
  5
507
330
1F
100
AcDbEntity
  8
PUMP_-_FRONTE
 62
   250
100
AcDb2dPolyline
 66
     1
 10
0.0
 20
0.0
 30
0.0
  0
VERTEX
  5
508
330
507
100
AcDbEntity
  8
PUMP_-_FRONTE
 62
   250
100
AcDbVertex
100
AcDb2dVertex
 10
1334.4984506014
 20
-1259.967832027651
 30
0.0
  0
VERTEX
  5
509
330
507
100
AcDbEntity
  8
PUMP_-_FRONTE
 62
   250
100
AcDbVertex
100
AcDb2dVertex
 10
1334.498347291512
 20
-1398.390062915724
 30
0.0
  0
SEQEND
  5
50A
330
507
100
AcDbEntity
  8
PUMP_-_FRONTE
 62
   250
  0
INSERT
  5
50C
330
1F
100
AcDbEntity
  8
PUMP_-_FRONTE
100
AcDbBlockReference
  2
BLOCK_94
 10
0.0
 20
0.0
 30
0.0
  0
INSERT
  5
514
330
1F
100
AcDbEntity
  8
PUMP_-_FRONTE
100
AcDbBlockReference
  2
BLOCK_95
 10
0.0
 20
0.0
 30
0.0
  0
INSERT
  5
51F
330
1F
100
AcDbEntity
  8
PUMP_-_FRONTE
100
AcDbBlockReference
  2
BLOCK_96
 10
0.0
 20
0.0
 30
0.0
  0
INSERT
  5
52A
330
1F
100
AcDbEntity
  8
PUMP_-_FRONTE
100
AcDbBlockReference
  2
BLOCK_97
 10
0.0
 20
0.0
 30
0.0
  0
INSERT
  5
530
330
1F
100
AcDbEntity
  8
PUMP_-_ALTO
100
AcDbBlockReference
  2
BLOCK_98
 10
0.0
 20
0.0
 30
0.0
  0
INSERT
  5
538
330
1F
100
AcDbEntity
  8
PUMP_-_ALTO
100
AcDbBlockReference
  2
BLOCK_99
 10
0.0
 20
0.0
 30
0.0
  0
INSERT
  5
540
330
1F
100
AcDbEntity
  8
PUMP_-_ALTO
100
AcDbBlockReference
  2
BLOCK_100
 10
0.0
 20
0.0
 30
0.0
  0
INSERT
  5
548
330
1F
100
AcDbEntity
  8
PUMP_-_ALTO
100
AcDbBlockReference
  2
BLOCK_101
 10
0.0
 20
0.0
 30
0.0
  0
INSERT
  5
553
330
1F
100
AcDbEntity
  8
PUMP_-_ALTO
100
AcDbBlockReference
  2
BLOCK_102
 10
0.0
 20
0.0
 30
0.0
  0
INSERT
  5
55E
330
1F
100
AcDbEntity
  8
PUMP_-_ALTO
100
AcDbBlockReference
  2
BLOCK_103
 10
0.0
 20
0.0
 30
0.0
  0
INSERT
  5
564
330
1F
100
AcDbEntity
  8
PUMP_-_ALTO
100
AcDbBlockReference
  2
BLOCK_104
 10
0.0
 20
0.0
 30
0.0
  0
SPLINE
  5
617
330
1F
100
AcDbEntity
  8
PUMP_-_ALTO
 62
   250
100
AcDbSpline
210
0.0
220
0.0
230
1.0
 70
     8
 71
     3
 72
     8
 73
     4
 74
     0
 42
0.0000000001
 43
0.0000000001
 12
1.0
 22
0.0
 32
0.0
 13
1.0
 23
0.0
 33
0.0
 40
0.0
 40
0.0
 40
0.0
 40
0.0
 40
1.0
 40
1.0
 40
1.0
 40
1.0
 10
977.8280559588197
 20
-1994.516947820324
 30
0.0
 10
977.8280559588197
 20
-1994.516947820324
 30
0.0
 10
992.5911416969428
 20
-2005.740962982683
 30
0.0
 10
1014.311092124301
 20
-2008.507427621631
 30
0.0
  0
INSERT
  5
619
330
1F
100
AcDbEntity
  8
PUMP_-_ALTO
100
AcDbBlockReference
  2
BLOCK_130
 10
0.0
 20
0.0
 30
0.0
  0
INSERT
  5
61E
330
1F
100
AcDbEntity
  8
PUMP_-_ALTO
100
AcDbBlockReference
  2
BLOCK_131
 10
0.0
 20
0.0
 30
0.0
  0
INSERT
  5
626
330
1F
100
AcDbEntity
  8
PUMP_-_ALTO
100
AcDbBlockReference
  2
BLOCK_132
 10
0.0
 20
0.0
 30
0.0
  0
INSERT
  5
62B
330
1F
100
AcDbEntity
  8
PUMP_-_ALTO
100
AcDbBlockReference
  2
BLOCK_133
 10
0.0
 20
0.0
 30
0.0
  0
INSERT
  5
630
330
1F
100
AcDbEntity
  8
PUMP_-_ALTO
100
AcDbBlockReference
  2
BLOCK_134
 10
0.0
 20
0.0
 30
0.0
  0
INSERT
  5
635
330
1F
100
AcDbEntity
  8
PUMP_-_ALTO
100
AcDbBlockReference
  2
BLOCK_135
 10
0.0
 20
0.0
 30
0.0
  0
INSERT
  5
63A
330
1F
100
AcDbEntity
  8
PUMP_-_ALTO
100
AcDbBlockReference
  2
BLOCK_136
 10
0.0
 20
0.0
 30
0.0
  0
INSERT
  5
642
330
1F
100
AcDbEntity
  8
PUMP_-_ALTO
100
AcDbBlockReference
  2
BLOCK_137
 10
0.0
 20
0.0
 30
0.0
  0
INSERT
  5
647
330
1F
100
AcDbEntity
  8
PUMP_-_ALTO
100
AcDbBlockReference
  2
BLOCK_138
 10
0.0
 20
0.0
 30
0.0
  0
INSERT
  5
64C
330
1F
100
AcDbEntity
  8
PUMP_-_ALTO
100
AcDbBlockReference
  2
BLOCK_139
 10
0.0
 20
0.0
 30
0.0
  0
INSERT
  5
651
330
1F
100
AcDbEntity
  8
PUMP_-_ALTO
100
AcDbBlockReference
  2
BLOCK_140
 10
0.0
 20
0.0
 30
0.0
  0
INSERT
  5
659
330
1F
100
AcDbEntity
  8
PUMP_-_ALTO
100
AcDbBlockReference
  2
BLOCK_141
 10
0.0
 20
0.0
 30
0.0
  0
INSERT
  5
65E
330
1F
100
AcDbEntity
  8
PUMP_-_ALTO
100
AcDbBlockReference
  2
BLOCK_142
 10
0.0
 20
0.0
 30
0.0
  0
INSERT
  5
666
330
1F
100
AcDbEntity
  8
PUMP_-_ALTO
100
AcDbBlockReference
  2
BLOCK_143
 10
0.0
 20
0.0
 30
0.0
  0
INSERT
  5
66B
330
1F
100
AcDbEntity
  8
PUMP_-_ALTO
100
AcDbBlockReference
  2
BLOCK_144
 10
0.0
 20
0.0
 30
0.0
  0
INSERT
  5
670
330
1F
100
AcDbEntity
  8
PUMP_-_ALTO
100
AcDbBlockReference
  2
BLOCK_145
 10
0.0
 20
0.0
 30
0.0
  0
INSERT
  5
675
330
1F
100
AcDbEntity
  8
PUMP_-_ALTO
100
AcDbBlockReference
  2
BLOCK_146
 10
0.0
 20
0.0
 30
0.0
  0
INSERT
  5
67D
330
1F
100
AcDbEntity
  8
PUMP_-_ALTO
100
AcDbBlockReference
  2
BLOCK_147
 10
0.0
 20
0.0
 30
0.0
  0
INSERT
  5
682
330
1F
100
AcDbEntity
  8
PUMP_-_ALTO
100
AcDbBlockReference
  2
BLOCK_148
 10
0.0
 20
0.0
 30
0.0
  0
INSERT
  5
687
330
1F
100
AcDbEntity
  8
PUMP_-_ALTO
100
AcDbBlockReference
  2
BLOCK_149
 10
0.0
 20
0.0
 30
0.0
  0
INSERT
  5
68F
330
1F
100
AcDbEntity
  8
PUMP_-_ALTO
100
AcDbBlockReference
  2
BLOCK_150
 10
0.0
 20
0.0
 30
0.0
  0
INSERT
  5
694
330
1F
100
AcDbEntity
  8
PUMP_-_ALTO
100
AcDbBlockReference
  2
BLOCK_151
 10
0.0
 20
0.0
 30
0.0
  0
INSERT
  5
699
330
1F
100
AcDbEntity
  8
PUMP_-_ALTO
100
AcDbBlockReference
  2
BLOCK_152
 10
0.0
 20
0.0
 30
0.0
  0
INSERT
  5
69E
330
1F
100
AcDbEntity
  8
PUMP_-_ALTO
100
AcDbBlockReference
  2
BLOCK_153
 10
0.0
 20
0.0
 30
0.0
  0
INSERT
  5
6A3
330
1F
100
AcDbEntity
  8
PUMP_-_ALTO
100
AcDbBlockReference
  2
BLOCK_154
 10
0.0
 20
0.0
 30
0.0
  0
INSERT
  5
6A8
330
1F
100
AcDbEntity
  8
PUMP_-_ALTO
100
AcDbBlockReference
  2
BLOCK_155
 10
0.0
 20
0.0
 30
0.0
  0
INSERT
  5
6B0
330
1F
100
AcDbEntity
  8
PUMP_-_ALTO
100
AcDbBlockReference
  2
BLOCK_156
 10
0.0
 20
0.0
 30
0.0
  0
INSERT
  5
6B5
330
1F
100
AcDbEntity
  8
PUMP_-_ALTO
100
AcDbBlockReference
  2
BLOCK_157
 10
0.0
 20
0.0
 30
0.0
  0
INSERT
  5
6BA
330
1F
100
AcDbEntity
  8
PUMP_-_ALTO
100
AcDbBlockReference
  2
BLOCK_158
 10
0.0
 20
0.0
 30
0.0
  0
SPLINE
  5
6BE
330
1F
100
AcDbEntity
  8
PUMP_-_ALTO
 62
   250
100
AcDbSpline
210
0.0
220
0.0
230
1.0
 70
     8
 71
     3
 72
    14
 73
    10
 74
     0
 42
0.0000000001
 43
0.0000000001
 12
1.0
 22
0.0
 32
0.0
 13
1.0
 23
0.0
 33
0.0
 40
0.0
 40
0.0
 40
0.0
 40
0.0
 40
1.0
 40
1.0
 40
1.0
 40
2.0
 40
2.0
 40
2.0
 40
3.0
 40
3.0
 40
3.0
 40
3.0
 10
969.2338346339379
 20
-2071.777484559986
 30
0.0
 10
969.2083193955003
 20
-2071.832713746984
 30
0.0
 10
981.1298779087028
 20
-2057.218220080745
 30
0.0
 10
986.3380877627999
 20
-2040.291572668714
 30
0.0
 10
986.3380877627999
 20
-2040.291572668714
 30
0.0
 10
988.0544118116002
 20
-2035.497673564814
 30
0.0
 10
992.8483198982257
 20
-2036.562986472951
 30
0.0
 10
997.642227984851
 20
-2037.628299381089
 30
0.0
 10
1003.501448979611
 20
-2039.936477348715
 30
0.0
 10
1013.148449203311
 20
-2040.587501903692
 30
0.0
  0
SPLINE
  5
6BF
330
1F
100
AcDbEntity
  8
PUMP_-_ALTO
 62
   250
100
AcDbSpline
210
0.0
220
0.0
230
1.0
 70
     8
 71
     3
 72
    20
 73
    16
 74
     0
 42
0.0000000001
 43
0.0000000001
 12
1.0
 22
0.0
 32
0.0
 13
1.0
 23
0.0
 33
0.0
 40
0.0
 40
0.0
 40
0.0
 40
0.0
 40
1.0
 40
1.0
 40
1.0
 40
2.0
 40
2.0
 40
2.0
 40
3.0
 40
3.0
 40
3.0
 40
4.0
 40
4.0
 40
4.0
 40
5.0
 40
5.0
 40
5.0
 40
5.0
 10
802.4556449775885
 20
-2048.972053800301
 30
0.0
 10
802.4556449775885
 20
-2048.972053800301
 30
0.0
 10
808.1475754608094
 20
-2046.065536106739
 30
0.0
 10
808.1475754608094
 20
-2046.065536106739
 30
0.0
 10
808.1475754608094
 20
-2046.065536106739
 30
0.0
 10
809.936073899
 20
-2045.131056086234
 30
0.0
 10
810.6767408825331
 20
-2046.405662122477
 30
0.0
 10
811.4174078660598
 20
-2047.680268158719
 30
0.0
 10
814.1624523544194
 20
-2054.018091462731
 30
0.0
 10
819.692909632441
 20
-2061.647700408318
 30
0.0
 10
819.692909632441
 20
-2061.647700408318
 30
0.0
 10
820.7021171649296
 20
-2063.141327556389
 30
0.0
 10
818.885543606454
 20
-2064.190903390176
 30
0.0
 10
817.0689700479784
 20
-2065.240479223964
 30
0.0
 10
813.4358229310304
 20
-2067.70294560323
 30
0.0
 10
813.4358229310304
 20
-2067.70294560323
 30
0.0
  0
SPLINE
  5
6C0
330
1F
100
AcDbEntity
  8
PUMP_-_ALTO
 62
   250
100
AcDbSpline
210
0.0
220
0.0
230
1.0
 70
     8
 71
     3
 72
    20
 73
    16
 74
     0
 42
0.0000000001
 43
0.0000000001
 12
1.0
 22
0.0
 32
0.0
 13
1.0
 23
0.0
 33
0.0
 40
0.0
 40
0.0
 40
0.0
 40
0.0
 40
1.0
 40
1.0
 40
1.0
 40
2.0
 40
2.0
 40
2.0
 40
3.0
 40
3.0
 40
3.0
 40
4.0
 40
4.0
 40
4.0
 40
5.0
 40
5.0
 40
5.0
 40
5.0
 10
904.2672261414345
 20
-1908.441372860256
 30
0.0
 10
904.2672261414345
 20
-1908.441372860256
 30
0.0
 10
903.9261107764808
 20
-1914.82335404667
 30
0.0
 10
903.9261107764808
 20
-1914.82335404667
 30
0.0
 10
903.9261107764808
 20
-1914.82335404667
 30
0.0
 10
903.8372693394715
 20
-1916.839315157573
 30
0.0
 10
902.3631162796746
 20
-1916.840618462465
 30
0.0
 10
900.888963219884
 20
-1916.841921767344
 30
0.0
 10
894.0293851520627
 20
-1916.037116613298
 30
0.0
 10
884.6550349243931
 20
-1916.993834718615
 30
0.0
 10
884.6550349243931
 20
-1916.993834718615
 30
0.0
 10
882.8567035941353
 20
-1917.11756844132
 30
0.0
 10
882.8600658462617
 20
-1915.01958128432
 30
0.0
 10
882.8634280983849
 20
-1912.921594127319
 30
0.0
 10
882.5558685067302
 20
-1908.543358494691
 30
0.0
 10
882.5558685067302
 20
-1908.543358494691
 30
0.0
  0
POLYLINE
  5
6C1
330
1F
100
AcDbEntity
  8
PUMP_-_ALTO
  6
AI-LINETYPE-11
 62
   250
100
AcDb2dPolyline
 66
     1
 10
0.0
 20
0.0
 30
0.0
  0
VERTEX
  5
6C2
330
6C1
100
AcDbEntity
  8
PUMP_-_ALTO
  6
AI-LINETYPE-11
 62
   250
100
AcDbVertex
100
AcDb2dVertex
 10
893.2670489755742
 20
-1912.718292505439
 30
0.0
  0
VERTEX
  5
6C3
330
6C1
100
AcDbEntity
  8
PUMP_-_ALTO
  6
AI-LINETYPE-11
 62
   250
100
AcDbVertex
100
AcDb2dVertex
 10
893.2670489755742
 20
-2101.808065807665
 30
0.0
  0
SEQEND
  5
6C5
330
6C1
100
AcDbEntity
  8
PUMP_-_ALTO
  6
AI-LINETYPE-11
 62
   250
  0
POLYLINE
  5
6C6
330
1F
100
AcDbEntity
  8
PUMP_-_ALTO
  6
AI-LINETYPE-12
 62
   250
100
AcDb2dPolyline
 66
     1
 10
0.0
 20
0.0
 30
0.0
  0
VERTEX
  5
6C7
330
6C6
100
AcDbEntity
  8
PUMP_-_ALTO
  6
AI-LINETYPE-12
 62
   250
100
AcDbVertex
100
AcDb2dVertex
 10
1050.619617274729
 20
-2008.937184127936
 30
0.0
  0
VERTEX
  5
6C8
330
6C6
100
AcDbEntity
  8
PUMP_-_ALTO
  6
AI-LINETYPE-12
 62
   250
100
AcDbVertex
100
AcDb2dVertex
 10
801.0108544025067
 20
-2008.937184127936
 30
0.0
  0
SEQEND
  5
6CA
330
6C6
100
AcDbEntity
  8
PUMP_-_ALTO
  6
AI-LINETYPE-12
 62
   250
  0
ENDSEC
  0
SECTION
  2
OBJECTS
  0
DICTIONARY
  5
C
330
0
100
AcDbDictionary
  3
ACAD_GROUP
350
D
  3
ACAD_LAYOUT
350
1A
  3
ACAD_MATERIAL
350
3B
  3
ACAD_MLEADERSTYLE
350
6F0
  3
ACAD_MLINESTYLE
350
17
  3
ACAD_PLOTSETTINGS
350
19
  3
ACAD_VISUALSTYLE
350
2A
  3
ACDBHEADERROUNDTRIPXREC
350
6CE
  3
ACDBVARIABLEDICTIONARY
350
6EE
  0
DICTIONARY
  5
D
102
{ACAD_REACTORS
330
C
102
}
330
C
100
AcDbDictionary
  0
DICTIONARY
  5
1A
102
{ACAD_REACTORS
330
C
102
}
330
C
100
AcDbDictionary
  0
DICTIONARY
  5
3B
102
{ACAD_REACTORS
330
C
102
}
330
C
100
AcDbDictionary
  3
BYBLOCK
350
3D
  3
BYLAYER
350
3C
  3
GLOBAL
350
3E
  0
DICTIONARY
  5
6F0
102
{ACAD_REACTORS
330
C
102
}
330
C
100
AcDbDictionary
  0
DICTIONARY
  5
17
102
{ACAD_REACTORS
330
C
102
}
330
C
100
AcDbDictionary
  3
STANDARD
350
18
  0
DICTIONARY
  5
19
102
{ACAD_REACTORS
330
C
102
}
330
C
100
AcDbDictionary
  0
DICTIONARY
  5
2A
102
{ACAD_REACTORS
330
C
102
}
330
C
100
AcDbDictionary
  3
2DWIREFRAME
350
2F
  3
3D_HIDDEN
350
31
  3
3DWIREFRAME
350
30
  3
BASIC
350
32
  3
BRIGHTEN
350
36
  3
COLORCHANGE
350
3A
  3
CONCEPTUAL
350
34
  3
DIM
350
35
  3
FACEPATTERN
350
39
  3
FLAT
350
2B
  3
FLATWITHEDGES
350
2C
  3
GOURAUD
350
2D
  3
GOURAUDWITHEDGES
350
2E
  3
LINEPATTERN
350
38
  3
REALISTIC
350
33
  3
THICKEN
350
37
  0
DICTIONARY
  5
6CE
102
{ACAD_REACTORS
330
C
102
}
330
C
100
AcDbDictionary
  3
CEPSNTYPE
350
6D7
  3
DIMSTYLEDATA
350
6ED
  3
FINGERPRINTGUID
350
6D8
  3
HYPERLINKBASE
350
6D1
  3
INSUNITS
350
6D6
  3
LAYOUTDICT
350
6D3
  3
LWETCUNION
350
6D5
  3
PLOTSETDICT
350
6D4
  3
PSVPSCALE
350
6DA
  3
PUCSBASE
350
6DD
  3
PUCSORGBACK
350
6E3
  3
PUCSORGBOTTOM
350
6DF
  3
PUCSORGFRONT
350
6E2
  3
PUCSORGLEFT
350
6E0
  3
PUCSORGRIGHT
350
6E1
  3
PUCSORGTOP
350
6DE
  3
PUCSORTHOREF
350
6DB
  3
PUCSORTHOVIEW
350
6DC
  3
STYLESHEET
350
6D2
  3
TSTACKALIGN
350
6CF
  3
TSTACKSIZE
350
6D0
  3
UCSBASE
350
6E6
  3
UCSORGBACK
350
6EC
  3
UCSORGBOTTOM
350
6E8
  3
UCSORGFRONT
350
6EB
  3
UCSORGLEFT
350
6E9
  3
UCSORGRIGHT
350
6EA
  3
UCSORGTOP
350
6E7
  3
UCSORTHOREF
350
6E4
  3
UCSORTHOVIEW
350
6E5
  3
VERSIONGUID
350
6D9
  0
DICTIONARY
  5
6EE
102
{ACAD_REACTORS
330
C
102
}
330
C
100
AcDbDictionary
  3
DIMASSOC
350
6F1
  3
HIDETEXT
350
6F2
  0
MATERIAL
  5
3D
102
{ACAD_REACTORS
330
3B
102
}
102
{ACAD_XDICTIONARY
360
6F5
102
}
330
3B
100
AcDbMaterial
  1
ByBlock
  0
MATERIAL
  5
3C
102
{ACAD_REACTORS
330
3B
102
}
102
{ACAD_XDICTIONARY
360
6F3
102
}
330
3B
100
AcDbMaterial
  1
ByLayer
  0
MATERIAL
  5
3E
102
{ACAD_REACTORS
330
3B
102
}
102
{ACAD_XDICTIONARY
360
6F7
102
}
330
3B
100
AcDbMaterial
  1
Global
  0
MLINESTYLE
  5
18
102
{ACAD_REACTORS
330
17
102
}
330
17
100
AcDbMlineStyle
  2
Standard
 70
     0
  3

 62
   256
 51
90.0
 52
90.0
 71
     2
 49
0.5
 62
   256
  6
BYLAYER
 49
-0.5
 62
   256
  6
BYLAYER
  0
ACAD_PROXY_OBJECT
  5
2F
102
{ACAD_REACTORS
330
2A
102
}
330
2A
100
AcDbProxyObject
 90
      499
 91
      501
 93
      436
310
42CC9915DA5C99599C985B595049028333333333333E3BF0000000000000FB0107901411070040501600405405064090741402480A0340
1001
ACAD
1000
AcDbSavedByObjectVersion
1070
     0
  0
ACAD_PROXY_OBJECT
  5
31
102
{ACAD_REACTORS
330
2A
102
}
330
2A
100
AcDbProxyObject
 90
      499
 91
      501
 93
      500
310
424CD108121A5919195B90640502408333333333333E3BF0000000000000FB01079024090700405020000000000001110200405405064090740C02480A0340
1001
ACAD
1000
AcDbSavedByObjectVersion
1070
     0
  0
ACAD_PROXY_OBJECT
  5
30
102
{ACAD_REACTORS
330
2A
102
}
330
2A
100
AcDbProxyObject
 90
      499
 91
      501
 93
      436
310
42CCD915DA5C99599C985B595059028333333333333E3BF0000000000000FB0107901411070040501600405405064090741402480A0340
1001
ACAD
1000
AcDbSavedByObjectVersion
1070
     0
  0
ACAD_PROXY_OBJECT
  5
32
102
{ACAD_REACTORS
330
2A
102
}
330
2A
100
AcDbProxyObject
 90
      499
 91
      501
 93
      388
310
4150985CDA58D07406404333333333333E3BF0000000000000FB0107A41107004050150841D405064090741402480A0350
1001
ACAD
1000
AcDbSavedByObjectVersion
1070
     0
  0
ACAD_PROXY_OBJECT
  5
36
102
{ACAD_REACTORS
330
2A
102
}
330
2A
100
AcDbProxyObject
 90
      499
 91
      501
 93
      428
310
42109C9A59DA1D195B90C409028333333333333E3BF0000000000000FB010790141107004050150841D405064090741402480A029950
1001
ACAD
1000
AcDbSavedByObjectVersion
1070
     0
  0
ACAD_PROXY_OBJECT
  5
3A
102
{ACAD_REACTORS
330
2A
102
}
330
2A
100
AcDbProxyObject
 90
      499
 91
      501
 93
      452
310
42D0DBDB1BDC90DA185B99D95104090240C333333333333E3BF0000000000000FB0108901411070040501508421405064090741402480A0350
1001
ACAD
1000
AcDbSavedByObjectVersion
1070
     0
  0
ACAD_PROXY_OBJECT
  5
34
102
{ACAD_REACTORS
330
2A
102
}
330
2A
100
AcDbProxyObject
 90
      499
 91
      501
 93
      500
310
4290DBDB98D95C1D1D585B10940D028333333333333E3BF0000000000000FB0107902409070040501000000000000111010841D405064090740C02480A0340
1001
ACAD
1000
AcDbSavedByObjectVersion
1070
     0
  0
ACAD_PROXY_OBJECT
  5
35
102
{ACAD_REACTORS
330
2A
102
}
330
2A
100
AcDbProxyObject
 90
      499
 91
      501
 93
      412
310
40D11A5B50B409028333333333333E3BF0000000000000FB010790141107004050150841D405064090741402480A02677FFFFFD0
1001
ACAD
1000
AcDbSavedByObjectVersion
1070
     0
  0
ACAD_PROXY_OBJECT
  5
39
102
{ACAD_REACTORS
330
2A
102
}
330
2A
100
AcDbProxyObject
 90
      499
 91
      501
 93
      444
310
42D19858D95C185D1D195C9B90F409028333333333333E3BF0000000000000FB010790141107004050150841D405064090741402480A0350
1001
ACAD
1000
AcDbSavedByObjectVersion
1070
     0
  0
ACAD_PROXY_OBJECT
  5
2B
102
{ACAD_REACTORS
330
2A
102
}
330
2A
100
AcDbProxyObject
 90
      499
 91
      501
 93
      388
310
41119B185D240901404333333333333E3BF0000000000000F9010740A41107004050150841D405064090741402480A1B50
1001
ACAD
1000
AcDbSavedByObjectVersion
1070
     0
  0
ACAD_PROXY_OBJECT
  5
2C
102
{ACAD_REACTORS
330
2A
102
}
330
2A
100
AcDbProxyObject
 90
      499
 91
      501
 93
      476
310
43519B185D15DA5D1A115919D95CD0140901404333333333333E3BF0000000000000F9010740901411070040501600405405064090741402480A1B50
1001
ACAD
1000
AcDbSavedByObjectVersion
1070
     0
  0
ACAD_PROXY_OBJECT
  5
2D
102
{ACAD_REACTORS
330
2A
102
}
330
2A
100
AcDbProxyObject
 90
      499
 91
      501
 93
      412
310
41D1DBDD5C985D5910240902404333333333333E3BF0000000000000F9010740A411070040501641D405064090741402480A1B50
1001
ACAD
1000
AcDbSavedByObjectVersion
1070
     0
  0
ACAD_PROXY_OBJECT
  5
2E
102
{ACAD_REACTORS
330
2A
102
}
330
2A
100
AcDbProxyObject
 90
      499
 91
      501
 93
      500
310
4411DBDD5C985D5915DA5D1A115919D95CD0340902404333333333333E3BF0000000000000F9010740901411070040501600405405064090741402480A1B50
1001
ACAD
1000
AcDbSavedByObjectVersion
1070
     0
  0
ACAD_PROXY_OBJECT
  5
38
102
{ACAD_REACTORS
330
2A
102
}
330
2A
100
AcDbProxyObject
 90
      499
 91
      501
 93
      444
310
42D31A5B995C185D1D195C9B90E409028333333333333E3BF0000000000000FB010790141107004050750841D405064090741402483A0350
1001
ACAD
1000
AcDbSavedByObjectVersion
1070
     0
  0
ACAD_PROXY_OBJECT
  5
33
102
{ACAD_REACTORS
330
2A
102
}
330
2A
100
AcDbProxyObject
 90
      499
 91
      501
 93
      420
310
425499585B1A5CDD1A58D08409028333333333333E3BF0000000000000FB01079019070040501508421405064090741402480A1B40
1001
ACAD
1000
AcDbSavedByObjectVersion
1070
     0
  0
ACAD_PROXY_OBJECT
  5
37
102
{ACAD_REACTORS
330
2A
102
}
330
2A
100
AcDbProxyObject
 90
      499
 91
      501
 93
      412
310
41D51A1A58DAD95B90D409028333333333333E3BF0000000000000FB010790141107004050150C41D405064090741402480A0350
1001
ACAD
1000
AcDbSavedByObjectVersion
1070
     0
  0
XRECORD
  5
6D7
102
{ACAD_REACTORS
330
6CE
102
}
330
6CE
100
AcDbXrecord
 90
        0
  0
XRECORD
  5
6ED
102
{ACAD_REACTORS
330
6CE
102
}
330
6CE
100
AcDbXrecord
1000
DSTYLE
1002
{
1070
   340
340
11
1002
}
  0
XRECORD
  5
6D8
102
{ACAD_REACTORS
330
6CE
102
}
330
6CE
100
AcDbXrecord
  1
{7BA5428A-D71C-43E0-A775-6A9CDF943E90}
  0
XRECORD
  5
6D1
102
{ACAD_REACTORS
330
6CE
102
}
330
6CE
100
AcDbXrecord
  1

  0
XRECORD
  5
6D6
102
{ACAD_REACTORS
330
6CE
102
}
330
6CE
100
AcDbXrecord
 90
        1
  0
XRECORD
  5
6D3
102
{ACAD_REACTORS
330
6CE
102
}
330
6CE
100
AcDbXrecord
340
1A
  0
XRECORD
  5
6D5
102
{ACAD_REACTORS
330
6CE
102
}
330
6CE
100
AcDbXrecord
 90
    10269
  0
XRECORD
  5
6D4
102
{ACAD_REACTORS
330
6CE
102
}
330
6CE
100
AcDbXrecord
340
19
  0
XRECORD
  5
6DA
102
{ACAD_REACTORS
330
6CE
102
}
330
6CE
100
AcDbXrecord
 40
0.0
  0
XRECORD
  5
6DD
102
{ACAD_REACTORS
330
6CE
102
}
330
6CE
100
AcDbXrecord
340
0
  0
XRECORD
  5
6E3
102
{ACAD_REACTORS
330
6CE
102
}
330
6CE
100
AcDbXrecord
 10
0.0
 20
0.0
 30
0.0
  0
XRECORD
  5
6DF
102
{ACAD_REACTORS
330
6CE
102
}
330
6CE
100
AcDbXrecord
 10
0.0
 20
0.0
 30
0.0
  0
XRECORD
  5
6E2
102
{ACAD_REACTORS
330
6CE
102
}
330
6CE
100
AcDbXrecord
 10
0.0
 20
0.0
 30
0.0
  0
XRECORD
  5
6E0
102
{ACAD_REACTORS
330
6CE
102
}
330
6CE
100
AcDbXrecord
 10
0.0
 20
0.0
 30
0.0
  0
XRECORD
  5
6E1
102
{ACAD_REACTORS
330
6CE
102
}
330
6CE
100
AcDbXrecord
 10
0.0
 20
0.0
 30
0.0
  0
XRECORD
  5
6DE
102
{ACAD_REACTORS
330
6CE
102
}
330
6CE
100
AcDbXrecord
 10
0.0
 20
0.0
 30
0.0
  0
XRECORD
  5
6DB
102
{ACAD_REACTORS
330
6CE
102
}
330
6CE
100
AcDbXrecord
340
0
  0
XRECORD
  5
6DC
102
{ACAD_REACTORS
330
6CE
102
}
330
6CE
100
AcDbXrecord
 70
     0
  0
XRECORD
  5
6D2
102
{ACAD_REACTORS
330
6CE
102
}
330
6CE
100
AcDbXrecord
  1

  0
XRECORD
  5
6CF
102
{ACAD_REACTORS
330
6CE
102
}
330
6CE
100
AcDbXrecord
 90
        1
  0
XRECORD
  5
6D0
102
{ACAD_REACTORS
330
6CE
102
}
330
6CE
100
AcDbXrecord
 90
       70
  0
XRECORD
  5
6E6
102
{ACAD_REACTORS
330
6CE
102
}
330
6CE
100
AcDbXrecord
340
0
  0
XRECORD
  5
6EC
102
{ACAD_REACTORS
330
6CE
102
}
330
6CE
100
AcDbXrecord
 10
0.0
 20
0.0
 30
0.0
  0
XRECORD
  5
6E8
102
{ACAD_REACTORS
330
6CE
102
}
330
6CE
100
AcDbXrecord
 10
0.0
 20
0.0
 30
0.0
  0
XRECORD
  5
6EB
102
{ACAD_REACTORS
330
6CE
102
}
330
6CE
100
AcDbXrecord
 10
0.0
 20
0.0
 30
0.0
  0
XRECORD
  5
6E9
102
{ACAD_REACTORS
330
6CE
102
}
330
6CE
100
AcDbXrecord
 10
0.0
 20
0.0
 30
0.0
  0
XRECORD
  5
6EA
102
{ACAD_REACTORS
330
6CE
102
}
330
6CE
100
AcDbXrecord
 10
0.0
 20
0.0
 30
0.0
  0
XRECORD
  5
6E7
102
{ACAD_REACTORS
330
6CE
102
}
330
6CE
100
AcDbXrecord
 10
0.0
 20
0.0
 30
0.0
  0
XRECORD
  5
6E4
102
{ACAD_REACTORS
330
6CE
102
}
330
6CE
100
AcDbXrecord
340
0
  0
XRECORD
  5
6E5
102
{ACAD_REACTORS
330
6CE
102
}
330
6CE
100
AcDbXrecord
 70
     0
  0
XRECORD
  5
6D9
102
{ACAD_REACTORS
330
6CE
102
}
330
6CE
100
AcDbXrecord
  1
{FAEB1C32-E019-11D5-929B-00C0DF256EC4}
  0
DICTIONARYVAR
  5
6F1
102
{ACAD_REACTORS
330
6EE
102
}
330
6EE
100
DictionaryVariables
280
     0
  1
2
  0
DICTIONARYVAR
  5
6F2
102
{ACAD_REACTORS
330
6EE
102
}
330
6EE
100
DictionaryVariables
280
     0
  1
1
  0
DICTIONARY
  5
6F5
330
3D
100
AcDbDictionary
280
     1
  3
ACAD_XREC_ROUNDTRIP
360
6F6
  0
DICTIONARY
  5
6F3
330
3C
100
AcDbDictionary
280
     1
  3
ACAD_XREC_ROUNDTRIP
360
6F4
  0
DICTIONARY
  5
6F7
330
3E
100
AcDbDictionary
280
     1
  3
ACAD_XREC_ROUNDTRIP
360
6F8
  0
XRECORD
  5
6F6
102
{ACAD_REACTORS
330
6F5
102
}
330
6F5
100
AcDbXrecord
102
MATERIAL
148
0.0
149
0.0
149
0.0
 93
        0
 94
      127
282
     0
 72
     1
 77
     1
171
     1
175
     1
179
     1
273
     0
  0
XRECORD
  5
6F4
102
{ACAD_REACTORS
330
6F3
102
}
330
6F3
100
AcDbXrecord
102
MATERIAL
148
0.0
149
0.0
149
0.0
 93
        0
 94
      127
282
     0
 72
     1
 77
     1
171
     1
175
     1
179
     1
273
     0
  0
XRECORD
  5
6F8
102
{ACAD_REACTORS
330
6F7
102
}
330
6F7
100
AcDbXrecord
102
MATERIAL
148
0.0
149
0.0
149
0.0
 93
        0
 94
      127
282
     0
 72
     1
 77
     1
171
     1
175
     1
179
     1
273
     0
  0
ENDSEC
  0
EOF
